ISO-10303-21;
HEADER;
FILE_DESCRIPTION(('Creo Elements/Direct Modeling STEP Export'),'2;1');
FILE_NAME(
'C:/temp/JobSpoolerServerData/JobServer Files/5d9811c5-e640-4473-b189-42
d511a766e5/work/output/model.stp','2020-02-12T14:31:11',(''),(''),
'Creo Elements/Direct Modeling STEP processor for AP214 (Solid Model)',
'Creo Elements/Direct Modeling 20.1A  29-Sep-2018 (C) Parametric Technol
ogy GmbH','');
FILE_SCHEMA(('AUTOMOTIVE_DESIGN { 1 0 10303 214 1 1 1 1 }'));
ENDSEC;
DATA;
#10=CARTESIAN_POINT('',(47.9183180398275,65.7970180907559,
7.105427357601E-15));
#20=DIRECTION('',(1.91052250483214E-31,-1.,2.74122250617291E-17));
#30=DIRECTION('',(1.,-1.14503107314641E-17,1.88737914186277E-15));
#40=AXIS2_PLACEMENT_3D('',#10,#20,#30);
#50=CYLINDRICAL_SURFACE('',#40,2.0875);
#60=CARTESIAN_POINT('',(47.9183180398275,67.1970180907559,0.));
#70=DIRECTION('',(-2.46519032881566E-32,-1.,2.74122250617295E-17));
#80=DIRECTION('',(1.,-1.14503107314641E-17,1.88737914186277E-15));
#90=AXIS2_PLACEMENT_3D('',#60,#70,#80);
#100=CIRCLE('',#90,2.0875);
#110=CARTESIAN_POINT('',(46.1654707337581,67.1970180907559,
-1.13365893089824));
#120=VERTEX_POINT('',#110);
#130=CARTESIAN_POINT('',(50.0058180398275,67.1970180907559,
1.10069542011531E-14));
#140=VERTEX_POINT('',#130);
#150=EDGE_CURVE('',#120,#140,#100,.T.);
#160=ORIENTED_EDGE('',*,*,#150,.F.);
#170=CARTESIAN_POINT('',(50.0058180398275,65.7970180907559,
1.10453313162395E-14));
#180=DIRECTION('',(1.91052250483214E-31,-1.,2.74122250617291E-17));
#190=VECTOR('',#180,1.);
#200=LINE('',#170,#190);
#210=CARTESIAN_POINT('',(50.0058180398275,65.7970180907559,
1.10453313162395E-14));
#220=VERTEX_POINT('',#210);
#230=EDGE_CURVE('',#140,#220,#200,.T.);
#240=ORIENTED_EDGE('',*,*,#230,.F.);
#250=CARTESIAN_POINT('',(47.9183180398275,65.7970180907559,0.));
#260=DIRECTION('',(-2.46519032881566E-32,-1.,2.74122250617295E-17));
#270=DIRECTION('',(1.,-1.14503107314641E-17,1.88737914186277E-15));
#280=AXIS2_PLACEMENT_3D('',#250,#260,#270);
#290=CIRCLE('',#280,2.0875);
#300=CARTESIAN_POINT('',(45.8803001249646,65.7970180907559,
-0.451817694095797));
#310=VERTEX_POINT('',#300);
#320=EDGE_CURVE('',#310,#220,#290,.T.);
#330=ORIENTED_EDGE('',*,*,#320,.T.);
#340=CARTESIAN_POINT('',(45.8308180398275,65.7970180907559,
3.42116841828449E-15));
#350=VERTEX_POINT('',#340);
#360=EDGE_CURVE('',#350,#310,#290,.T.);
#370=ORIENTED_EDGE('',*,*,#360,.T.);
#380=CARTESIAN_POINT('',(45.8308180398275,65.7970180907559,
3.42116841828449E-15));
#390=DIRECTION('',(1.91052250483214E-31,-1.,2.74122250617291E-17));
#400=VECTOR('',#390,1.);
#410=LINE('',#380,#400);
#420=CARTESIAN_POINT('',(45.8308180398275,67.1970180907559,
3.38279130319807E-15));
#430=VERTEX_POINT('',#420);
#440=EDGE_CURVE('',#430,#350,#410,.T.);
#450=ORIENTED_EDGE('',*,*,#440,.T.);
#460=EDGE_CURVE('',#430,#120,#100,.T.);
#470=ORIENTED_EDGE('',*,*,#460,.F.);
#480=EDGE_LOOP('',(#470,#450,#370,#330,#240,#160));
#490=FACE_OUTER_BOUND('',#480,.T.);
#500=ADVANCED_FACE('',(#490),#50,.F.);
#510=COLOUR_RGB('',0.980392217636108,1.,1.);
#520=FILL_AREA_STYLE_COLOUR('',#510);
#530=FILL_AREA_STYLE('',(#520));
#540=SURFACE_STYLE_FILL_AREA(#530);
#550=SURFACE_SIDE_STYLE('',(#540));
#560=SURFACE_STYLE_USAGE(.BOTH.,#550);
#570=PRESENTATION_STYLE_ASSIGNMENT((#560));
#580=CARTESIAN_POINT('',(47.9183180398275,96.0470204907559,
-7.105427357601E-15));
#590=DIRECTION('',(-2.46519032881566E-32,-1.,2.74122250617295E-17));
#600=DIRECTION('',(1.,-1.14503107314641E-17,1.88737914186277E-15));
#610=AXIS2_PLACEMENT_3D('',#580,#590,#600);
#620=CYLINDRICAL_SURFACE('',#610,1.5375);
#630=CARTESIAN_POINT('',(49.4558180398275,96.0470204907559,
-4.203581926987E-15));
#640=DIRECTION('',(-2.46519032881566E-32,-1.,2.74122250617294E-17));
#650=VECTOR('',#640,1.);
#660=LINE('',#630,#650);
#670=CARTESIAN_POINT('',(49.4558180398275,93.2970180907559,
-4.1281982422779E-15));
#680=VERTEX_POINT('',#670);
#690=CARTESIAN_POINT('',(49.4558180398275,70.4970180907559,
-3.50319951087047E-15));
#700=VERTEX_POINT('',#690);
#710=EDGE_CURVE('',#680,#700,#660,.T.);
#720=ORIENTED_EDGE('',*,*,#710,.F.);
#730=CARTESIAN_POINT('',(47.9183180398275,70.4970180907559,0.));
#740=DIRECTION('',(-2.46519032881566E-32,-1.,2.74122250617295E-17));
#750=DIRECTION('',(1.,-1.14503107314641E-17,1.88737914186277E-15));
#760=AXIS2_PLACEMENT_3D('',#730,#740,#750);
#770=CIRCLE('',#760,1.5375);
#780=CARTESIAN_POINT('',(46.3808180398275,70.4970180907559,
-9.11860092672957E-15));
#790=VERTEX_POINT('',#780);
#800=EDGE_CURVE('',#790,#700,#770,.T.);
#810=ORIENTED_EDGE('',*,*,#800,.T.);
#820=CARTESIAN_POINT('',(46.3808180398275,96.0470204907559,
-9.8189833428461E-15));
#830=DIRECTION('',(-2.46519032881566E-32,-1.,2.74122250617294E-17));
#840=VECTOR('',#830,1.);
#850=LINE('',#820,#840);
#860=CARTESIAN_POINT('',(46.3808180398275,93.2970180907559,
-9.743599658137E-15));
#870=VERTEX_POINT('',#860);
#880=EDGE_CURVE('',#870,#790,#850,.T.);
#890=ORIENTED_EDGE('',*,*,#880,.T.);
#900=CARTESIAN_POINT('',(47.9183180398275,93.2970180907559,0.));
#910=DIRECTION('',(-2.46519032881566E-32,-1.,2.74122250617295E-17));
#920=DIRECTION('',(1.,-2.53280985392786E-17,1.77635683940025E-15));
#930=AXIS2_PLACEMENT_3D('',#900,#910,#920);
#940=CIRCLE('',#930,1.5375);
#950=EDGE_CURVE('',#870,#680,#940,.T.);
#960=ORIENTED_EDGE('',*,*,#950,.F.);
#970=EDGE_LOOP('',(#960,#890,#810,#720));
#980=FACE_OUTER_BOUND('',#970,.T.);
#990=ADVANCED_FACE('',(#980),#620,.F.);
#1000=COLOUR_RGB('',0.980392217636108,1.,1.);
#1010=FILL_AREA_STYLE_COLOUR('',#1000);
#1020=FILL_AREA_STYLE('',(#1010));
#1030=SURFACE_STYLE_FILL_AREA(#1020);
#1040=SURFACE_SIDE_STYLE('',(#1030));
#1050=SURFACE_STYLE_USAGE(.BOTH.,#1040);
#1060=PRESENTATION_STYLE_ASSIGNMENT((#1050));
#1070=CARTESIAN_POINT('',(47.328728622368,70.4970180907559,
-0.775994539892032));
#1080=DIRECTION('',(-1.14503107314642E-17,-1.,2.08166817117216E-17));
#1090=DIRECTION('',(1.,-1.14503107314641E-17,1.88737914186277E-15));
#1100=AXIS2_PLACEMENT_3D('',#1070,#1080,#1090);
#1110=PLANE('',#1100);
#1120=EDGE_CURVE('',#700,#790,#770,.T.);
#1130=ORIENTED_EDGE('',*,*,#1120,.F.);
#1140=ORIENTED_EDGE('',*,*,#800,.F.);
#1150=EDGE_LOOP('',(#1140,#1130));
#1160=FACE_BOUND('',#1150,.T.);
#1170=CARTESIAN_POINT('',(47.9183180398275,70.4970180907559,0.));
#1180=DIRECTION('',(-2.46519032881566E-32,-1.,2.74122250617295E-17));
#1190=DIRECTION('',(1.,-1.14503107314641E-17,1.88737914186277E-15));
#1200=AXIS2_PLACEMENT_3D('',#1170,#1180,#1190);
#1210=CIRCLE('',#1200,1.62);
#1220=CARTESIAN_POINT('',(49.5383180398275,70.4970180907559,
2.92871675202756E-15));
#1230=VERTEX_POINT('',#1220);
#1240=CARTESIAN_POINT('',(46.2983180398275,70.4970180907559,
-2.98799888614594E-15));
#1250=VERTEX_POINT('',#1240);
#1260=EDGE_CURVE('',#1230,#1250,#1210,.T.);
#1270=ORIENTED_EDGE('',*,*,#1260,.T.);
#1280=EDGE_CURVE('',#1250,#1230,#1210,.T.);
#1290=ORIENTED_EDGE('',*,*,#1280,.T.);
#1300=EDGE_LOOP('',(#1290,#1270));
#1310=FACE_OUTER_BOUND('',#1300,.T.);
#1320=ADVANCED_FACE('',(#1160,#1310),#1110,.T.);
#1330=COLOUR_RGB('',0.980392217636108,1.,1.);
#1340=FILL_AREA_STYLE_COLOUR('',#1330);
#1350=FILL_AREA_STYLE('',(#1340));
#1360=SURFACE_STYLE_FILL_AREA(#1350);
#1370=SURFACE_SIDE_STYLE('',(#1360));
#1380=SURFACE_STYLE_USAGE(.BOTH.,#1370);
#1390=PRESENTATION_STYLE_ASSIGNMENT((#1380));
#1400=CARTESIAN_POINT('',(47.9183180398275,65.7970180907559,0.));
#1410=DIRECTION('',(-2.46519032881566E-32,-1.,2.74122250617295E-17));
#1420=DIRECTION('',(1.,-1.14503107314641E-17,1.88737914186277E-15));
#1430=AXIS2_PLACEMENT_3D('',#1400,#1410,#1420);
#1440=CYLINDRICAL_SURFACE('',#1430,1.62);
#1450=CARTESIAN_POINT('',(46.2983180398275,65.7970180907559,
-2.85916142835581E-15));
#1460=DIRECTION('',(-2.46519032881566E-32,-1.,2.74122250617294E-17));
#1470=VECTOR('',#1460,1.);
#1480=LINE('',#1450,#1470);
#1490=CARTESIAN_POINT('',(46.2983180398275,67.1970180907559,
-2.89753854344223E-15));
#1500=VERTEX_POINT('',#1490);
#1510=EDGE_CURVE('',#1250,#1500,#1480,.T.);
#1520=ORIENTED_EDGE('',*,*,#1510,.T.);
#1530=ORIENTED_EDGE('',*,*,#1280,.F.);
#1540=CARTESIAN_POINT('',(49.5383180398275,65.7970180907559,
3.05755420981769E-15));
#1550=DIRECTION('',(-2.46519032881566E-32,-1.,2.74122250617294E-17));
#1560=VECTOR('',#1550,1.);
#1570=LINE('',#1540,#1560);
#1580=CARTESIAN_POINT('',(49.5383180398275,67.1970180907559,
3.01917709473127E-15));
#1590=VERTEX_POINT('',#1580);
#1600=EDGE_CURVE('',#1230,#1590,#1570,.T.);
#1610=ORIENTED_EDGE('',*,*,#1600,.F.);
#1620=CARTESIAN_POINT('',(47.9183180398275,67.1970180907559,0.));
#1630=DIRECTION('',(-2.46519032881566E-32,-1.,2.74122250617295E-17));
#1640=DIRECTION('',(1.,-1.14503107314641E-17,1.88737914186277E-15));
#1650=AXIS2_PLACEMENT_3D('',#1620,#1630,#1640);
#1660=CIRCLE('',#1650,1.62);
#1670=EDGE_CURVE('',#1500,#1590,#1660,.T.);
#1680=ORIENTED_EDGE('',*,*,#1670,.T.);
#1690=EDGE_LOOP('',(#1680,#1610,#1530,#1520));
#1700=FACE_OUTER_BOUND('',#1690,.T.);
#1710=ADVANCED_FACE('',(#1700),#1440,.F.);
#1720=COLOUR_RGB('',0.980392217636108,1.,1.);
#1730=FILL_AREA_STYLE_COLOUR('',#1720);
#1740=FILL_AREA_STYLE('',(#1730));
#1750=SURFACE_STYLE_FILL_AREA(#1740);
#1760=SURFACE_SIDE_STYLE('',(#1750));
#1770=SURFACE_STYLE_USAGE(.BOTH.,#1760);
#1780=PRESENTATION_STYLE_ASSIGNMENT((#1770));
#1790=CARTESIAN_POINT('',(47.9183180398275,65.7970180907559,0.));
#1800=DIRECTION('',(0.,-1.,4.11349932959262E-17));
#1810=DIRECTION('',(0.991444861373811,-1.3348463230542E-18,
-0.13052619222005));
#1820=AXIS2_PLACEMENT_3D('',#1790,#1800,#1810);
#1830=CONICAL_SURFACE('',#1820,2.5125,0.00727259905240371);
#1840=CARTESIAN_POINT('',(45.4273128256258,65.7970180907559,
0.327947057952875));
#1850=DIRECTION('',(-0.00721031739916005,-0.999973554768071,
0.000949256293997305));
#1860=VECTOR('',#1850,345.477886242828);
#1870=LINE('',#1840,#1860);
#1880=CARTESIAN_POINT('',(45.6256017979006,93.2970180907559,
0.301841819508864));
#1890=VERTEX_POINT('',#1880);
#1900=CARTESIAN_POINT('',(45.4273128256258,65.7970180907559,
0.327947057952875));
#1910=VERTEX_POINT('',#1900);
#1920=EDGE_CURVE('',#1890,#1910,#1870,.T.);
#1930=ORIENTED_EDGE('',*,*,#1920,.F.);
#1940=CARTESIAN_POINT('',(47.9183180398275,65.7970180907559,0.));
#1950=DIRECTION('',(-2.46519032881566E-32,-1.,2.74122250617295E-17));
#1960=DIRECTION('',(0.99144486137381,-2.18447627427156E-17,
0.130526192220054));
#1970=AXIS2_PLACEMENT_3D('',#1940,#1950,#1960);
#1980=CIRCLE('',#1970,2.5125);
#1990=CARTESIAN_POINT('',(50.4093232540292,65.7970180907559,
-0.327947057952876));
#2000=VERTEX_POINT('',#1990);
#2010=EDGE_CURVE('',#1910,#2000,#1980,.T.);
#2020=ORIENTED_EDGE('',*,*,#2010,.F.);
#2030=CARTESIAN_POINT('',(50.4093232540292,65.7970180907559,
-0.327947057952876));
#2040=DIRECTION('',(0.00721031739916005,-0.999973554768071,
-0.000949256293997225));
#2050=VECTOR('',#2040,345.477886242828);
#2060=LINE('',#2030,#2050);
#2070=CARTESIAN_POINT('',(50.2110342817544,93.2970180907559,
-0.301841819508867));
#2080=VERTEX_POINT('',#2070);
#2090=EDGE_CURVE('',#2080,#2000,#2060,.T.);
#2100=ORIENTED_EDGE('',*,*,#2090,.T.);
#2110=CARTESIAN_POINT('',(47.9183180398275,93.2970180907559,
-7.32747196252603E-15));
#2120=DIRECTION('',(-2.46519032881566E-32,-1.,2.74122250617295E-17));
#2130=DIRECTION('',(0.608761429008718,2.17475803175382E-17,
0.793353340291237));
#2140=AXIS2_PLACEMENT_3D('',#2110,#2120,#2130);
#2150=CIRCLE('',#2140,2.3125);
#2160=CARTESIAN_POINT('',(48.7931052386905,93.2970180907559,
-2.14065494807207));
#2170=VERTEX_POINT('',#2160);
#2180=EDGE_CURVE('',#2170,#2080,#2150,.T.);
#2190=ORIENTED_EDGE('',*,*,#2180,.T.);
#2200=EDGE_CURVE('',#1890,#2170,#2150,.T.);
#2210=ORIENTED_EDGE('',*,*,#2200,.T.);
#2220=EDGE_LOOP('',(#2210,#2190,#2100,#2020,#1930));
#2230=FACE_OUTER_BOUND('',#2220,.T.);
#2240=ADVANCED_FACE('',(#2230),#1830,.T.);
#2250=COLOUR_RGB('',0.980392217636108,1.,1.);
#2260=FILL_AREA_STYLE_COLOUR('',#2250);
#2270=FILL_AREA_STYLE('',(#2260));
#2280=SURFACE_STYLE_FILL_AREA(#2270);
#2290=SURFACE_SIDE_STYLE('',(#2280));
#2300=SURFACE_STYLE_USAGE(.BOTH.,#2290);
#2310=PRESENTATION_STYLE_ASSIGNMENT((#2300));
#2320=CARTESIAN_POINT('',(48.9865537492937,93.2970180907559,
-0.44247771867213));
#2330=DIRECTION('',(1.4648342812113E-17,1.,-2.55557704473121E-17));
#2340=DIRECTION('',(0.923879532511287,-2.33130740608317E-17,
-0.382683432365088));
#2350=AXIS2_PLACEMENT_3D('',#2320,#2330,#2340);
#2360=PLANE('',#2350);
#2370=EDGE_CURVE('',#680,#870,#940,.T.);
#2380=ORIENTED_EDGE('',*,*,#2370,.T.);
#2390=ORIENTED_EDGE('',*,*,#950,.T.);
#2400=EDGE_LOOP('',(#2390,#2380));
#2410=FACE_BOUND('',#2400,.T.);
#2420=ORIENTED_EDGE('',*,*,#2180,.F.);
#2430=EDGE_CURVE('',#2080,#1890,#2150,.T.);
#2440=ORIENTED_EDGE('',*,*,#2430,.F.);
#2450=ORIENTED_EDGE('',*,*,#2200,.F.);
#2460=EDGE_LOOP('',(#2450,#2440,#2420));
#2470=FACE_OUTER_BOUND('',#2460,.T.);
#2480=ADVANCED_FACE('',(#2410,#2470),#2360,.T.);
#2490=COLOUR_RGB('',0.980392217636108,1.,1.);
#2500=FILL_AREA_STYLE_COLOUR('',#2490);
#2510=FILL_AREA_STYLE('',(#2500));
#2520=SURFACE_STYLE_FILL_AREA(#2510);
#2530=SURFACE_SIDE_STYLE('',(#2520));
#2540=SURFACE_STYLE_USAGE(.BOTH.,#2530);
#2550=PRESENTATION_STYLE_ASSIGNMENT((#2540));
#2560=CARTESIAN_POINT('',(48.9149681735684,65.7970180907559,
-0.764756545192206));
#2570=DIRECTION('',(3.15298636638278E-18,1.,-2.51938482398112E-17));
#2580=DIRECTION('',(-0.793353340291236,1.78384753223588E-17,
0.608761429008719));
#2590=AXIS2_PLACEMENT_3D('',#2560,#2570,#2580);
#2600=PLANE('',#2590);
#2610=ORIENTED_EDGE('',*,*,#320,.F.);
#2620=EDGE_CURVE('',#220,#350,#290,.T.);
#2630=ORIENTED_EDGE('',*,*,#2620,.F.);
#2640=ORIENTED_EDGE('',*,*,#360,.F.);
#2650=EDGE_LOOP('',(#2640,#2630,#2610));
#2660=FACE_BOUND('',#2650,.T.);
#2670=ORIENTED_EDGE('',*,*,#2010,.T.);
#2680=CARTESIAN_POINT('',(48.462122569847,65.7970180907559,
2.45294371788883));
#2690=VERTEX_POINT('',#2680);
#2700=EDGE_CURVE('',#2690,#1910,#1980,.T.);
#2710=ORIENTED_EDGE('',*,*,#2700,.T.);
#2720=EDGE_CURVE('',#2000,#2690,#1980,.T.);
#2730=ORIENTED_EDGE('',*,*,#2720,.T.);
#2740=EDGE_LOOP('',(#2730,#2710,#2670));
#2750=FACE_OUTER_BOUND('',#2740,.T.);
#2760=ADVANCED_FACE('',(#2660,#2750),#2600,.F.);
#2770=COLOUR_RGB('',0.980392217636108,1.,1.);
#2780=FILL_AREA_STYLE_COLOUR('',#2770);
#2790=FILL_AREA_STYLE('',(#2780));
#2800=SURFACE_STYLE_FILL_AREA(#2790);
#2810=SURFACE_SIDE_STYLE('',(#2800));
#2820=SURFACE_STYLE_USAGE(.BOTH.,#2810);
#2830=PRESENTATION_STYLE_ASSIGNMENT((#2820));
#2840=CARTESIAN_POINT('',(47.328728622368,67.1970180907559,
-0.775994539892032));
#2850=DIRECTION('',(-1.14503107314642E-17,-1.,2.08166817117216E-17));
#2860=DIRECTION('',(1.,-1.14503107314641E-17,1.88737914186277E-15));
#2870=AXIS2_PLACEMENT_3D('',#2840,#2850,#2860);
#2880=PLANE('',#2870);
#2890=EDGE_CURVE('',#1590,#1500,#1660,.T.);
#2900=ORIENTED_EDGE('',*,*,#2890,.F.);
#2910=ORIENTED_EDGE('',*,*,#1670,.F.);
#2920=EDGE_LOOP('',(#2910,#2900));
#2930=FACE_BOUND('',#2920,.T.);
#2940=EDGE_CURVE('',#140,#430,#100,.T.);
#2950=ORIENTED_EDGE('',*,*,#2940,.T.);
#2960=ORIENTED_EDGE('',*,*,#150,.T.);
#2970=ORIENTED_EDGE('',*,*,#460,.T.);
#2980=EDGE_LOOP('',(#2970,#2960,#2950));
#2990=FACE_OUTER_BOUND('',#2980,.T.);
#3000=ADVANCED_FACE('',(#2930,#2990),#2880,.T.);
#3010=COLOUR_RGB('',0.980392217636108,1.,1.);
#3020=FILL_AREA_STYLE_COLOUR('',#3010);
#3030=FILL_AREA_STYLE('',(#3020));
#3040=SURFACE_STYLE_FILL_AREA(#3030);
#3050=SURFACE_SIDE_STYLE('',(#3040));
#3060=SURFACE_STYLE_USAGE(.BOTH.,#3050);
#3070=PRESENTATION_STYLE_ASSIGNMENT((#3060));
#3080=CARTESIAN_POINT('',(47.9183180398275,65.7970180907559,0.));
#3090=DIRECTION('',(0.,-1.,4.11349932959262E-17));
#3100=DIRECTION('',(0.991444861373811,-1.3348463230542E-18,
-0.13052619222005));
#3110=AXIS2_PLACEMENT_3D('',#3080,#3090,#3100);
#3120=CONICAL_SURFACE('',#3110,2.5125,0.00727259905240371);
#3130=ORIENTED_EDGE('',*,*,#2700,.F.);
#3140=ORIENTED_EDGE('',*,*,#1920,.T.);
#3150=ORIENTED_EDGE('',*,*,#2430,.T.);
#3160=ORIENTED_EDGE('',*,*,#2090,.F.);
#3170=ORIENTED_EDGE('',*,*,#2720,.F.);
#3180=EDGE_LOOP('',(#3170,#3160,#3150,#3140,#3130));
#3190=FACE_OUTER_BOUND('',#3180,.T.);
#3200=ADVANCED_FACE('',(#3190),#3120,.T.);
#3210=COLOUR_RGB('',0.980392217636108,1.,1.);
#3220=FILL_AREA_STYLE_COLOUR('',#3210);
#3230=FILL_AREA_STYLE('',(#3220));
#3240=SURFACE_STYLE_FILL_AREA(#3230);
#3250=SURFACE_SIDE_STYLE('',(#3240));
#3260=SURFACE_STYLE_USAGE(.BOTH.,#3250);
#3270=PRESENTATION_STYLE_ASSIGNMENT((#3260));
#3280=CARTESIAN_POINT('',(47.9183180398275,65.7970180907559,0.));
#3290=DIRECTION('',(-2.46519032881566E-32,-1.,2.74122250617295E-17));
#3300=DIRECTION('',(1.,-1.14503107314641E-17,1.88737914186277E-15));
#3310=AXIS2_PLACEMENT_3D('',#3280,#3290,#3300);
#3320=CYLINDRICAL_SURFACE('',#3310,1.62);
#3330=ORIENTED_EDGE('',*,*,#1260,.F.);
#3340=ORIENTED_EDGE('',*,*,#1510,.F.);
#3350=ORIENTED_EDGE('',*,*,#2890,.T.);
#3360=ORIENTED_EDGE('',*,*,#1600,.T.);
#3370=EDGE_LOOP('',(#3360,#3350,#3340,#3330));
#3380=FACE_OUTER_BOUND('',#3370,.T.);
#3390=ADVANCED_FACE('',(#3380),#3320,.F.);
#3400=COLOUR_RGB('',0.980392217636108,1.,1.);
#3410=FILL_AREA_STYLE_COLOUR('',#3400);
#3420=FILL_AREA_STYLE('',(#3410));
#3430=SURFACE_STYLE_FILL_AREA(#3420);
#3440=SURFACE_SIDE_STYLE('',(#3430));
#3450=SURFACE_STYLE_USAGE(.BOTH.,#3440);
#3460=PRESENTATION_STYLE_ASSIGNMENT((#3450));
#3470=CARTESIAN_POINT('',(47.9183180398275,65.7970180907559,
7.105427357601E-15));
#3480=DIRECTION('',(1.91052250483214E-31,-1.,2.74122250617291E-17));
#3490=DIRECTION('',(1.,-1.14503107314641E-17,1.88737914186277E-15));
#3500=AXIS2_PLACEMENT_3D('',#3470,#3480,#3490);
#3510=CYLINDRICAL_SURFACE('',#3500,2.0875);
#3520=ORIENTED_EDGE('',*,*,#2940,.F.);
#3530=ORIENTED_EDGE('',*,*,#440,.F.);
#3540=ORIENTED_EDGE('',*,*,#2620,.T.);
#3550=ORIENTED_EDGE('',*,*,#230,.T.);
#3560=EDGE_LOOP('',(#3550,#3540,#3530,#3520));
#3570=FACE_OUTER_BOUND('',#3560,.T.);
#3580=ADVANCED_FACE('',(#3570),#3510,.F.);
#3590=COLOUR_RGB('',0.980392217636108,1.,1.);
#3600=FILL_AREA_STYLE_COLOUR('',#3590);
#3610=FILL_AREA_STYLE('',(#3600));
#3620=SURFACE_STYLE_FILL_AREA(#3610);
#3630=SURFACE_SIDE_STYLE('',(#3620));
#3640=SURFACE_STYLE_USAGE(.BOTH.,#3630);
#3650=PRESENTATION_STYLE_ASSIGNMENT((#3640));
#3660=CARTESIAN_POINT('',(47.9183180398275,96.0470204907559,
-7.105427357601E-15));
#3670=DIRECTION('',(-2.46519032881566E-32,-1.,2.74122250617295E-17));
#3680=DIRECTION('',(1.,-1.14503107314641E-17,1.88737914186277E-15));
#3690=AXIS2_PLACEMENT_3D('',#3660,#3670,#3680);
#3700=CYLINDRICAL_SURFACE('',#3690,1.5375);
#3710=ORIENTED_EDGE('',*,*,#2370,.F.);
#3720=ORIENTED_EDGE('',*,*,#880,.F.);
#3730=ORIENTED_EDGE('',*,*,#1120,.T.);
#3740=ORIENTED_EDGE('',*,*,#710,.T.);
#3750=EDGE_LOOP('',(#3740,#3730,#3720,#3710));
#3760=FACE_OUTER_BOUND('',#3750,.T.);
#3770=ADVANCED_FACE('',(#3760),#3700,.F.);
#3780=COLOUR_RGB('',0.980392217636108,1.,1.);
#3790=FILL_AREA_STYLE_COLOUR('',#3780);
#3800=FILL_AREA_STYLE('',(#3790));
#3810=SURFACE_STYLE_FILL_AREA(#3800);
#3820=SURFACE_SIDE_STYLE('',(#3810));
#3830=SURFACE_STYLE_USAGE(.BOTH.,#3820);
#3840=PRESENTATION_STYLE_ASSIGNMENT((#3830));
#3850=CLOSED_SHELL('',(#500,#990,#1320,#1710,#2240,#2480,#2760,#3000,
#3200,#3390,#3580,#3770));
#3860=MANIFOLD_SOLID_BREP('',#3850);
#3870=CARTESIAN_POINT('',(0.,0.,0.));
#3880=DIRECTION('',(0.,0.,1.));
#3890=DIRECTION('',(1.,0.,0.));
#3900=AXIS2_PLACEMENT_3D('',#3870,#3880,#3890);
#3910=APPLICATION_CONTEXT(' ');
#3920=APPLICATION_PROTOCOL_DEFINITION(' ','automotive_design',1998,#3910
);
#3930=PRODUCT_CONTEXT('',#3910,'mechanical');
#3940=PRODUCT_DEFINITION_CONTEXT('part definition',#3910,'design');
#3950=PRODUCT('MPS-IH-WH-select','MPS-IH-WH-select','',(#3930));
#3960=PRODUCT_RELATED_PRODUCT_CATEGORY('part',' ',(#3950));
#3970=PRODUCT_DEFINITION_FORMATION_WITH_SPECIFIED_SOURCE('','',#3950,
.BOUGHT.);
#3980=PRODUCT_DEFINITION('',' ',#3970,#3940);
#3990=PRODUCT_DEFINITION_SHAPE('','',#3980);
#4000=DIMENSIONAL_EXPONENTS(1.,0.,0.,0.,0.,0.,0.);
#4010=DIMENSIONAL_EXPONENTS(0.,0.,0.,0.,0.,0.,0.);
#4020=DIMENSIONAL_EXPONENTS(0.,0.,0.,0.,0.,0.,0.);
#4030=(LENGTH_UNIT() NAMED_UNIT(*) SI_UNIT(.MILLI.,.METRE.));
#4040=(NAMED_UNIT(*) PLANE_ANGLE_UNIT() SI_UNIT($,.RADIAN.));
#4050=(NAMED_UNIT(*) SI_UNIT($,.STERADIAN.) SOLID_ANGLE_UNIT());
#4060=(GEOMETRIC_REPRESENTATION_CONTEXT(3) 
GLOBAL_UNCERTAINTY_ASSIGNED_CONTEXT((#4070)) 
GLOBAL_UNIT_ASSIGNED_CONTEXT((#4030,#4040,#4050)) REPRESENTATION_CONTEXT
('',''));
#4070=UNCERTAINTY_MEASURE_WITH_UNIT(LENGTH_MEASURE(1.E-6),#4030,
'distance_accuracy_value','maximum gap value');
#4080=ADVANCED_BREP_SHAPE_REPRESENTATION('',(#3900,#3860),#4060);
#4090=SHAPE_DEFINITION_REPRESENTATION(#3990,#4080);
#4100=COLOUR_RGB('',0.980392217636108,1.,1.);
#4110=FILL_AREA_STYLE_COLOUR('',#4100);
#4120=FILL_AREA_STYLE('',(#4110));
#4130=SURFACE_STYLE_FILL_AREA(#4120);
#4140=SURFACE_SIDE_STYLE('',(#4130));
#4150=SURFACE_STYLE_USAGE(.BOTH.,#4140);
#4160=PRESENTATION_STYLE_ASSIGNMENT((#4150));
#4170=STYLED_ITEM('',(#4160),#3860);
#4180=OVER_RIDING_STYLED_ITEM('',(#570),#500,#4170);
#4190=OVER_RIDING_STYLED_ITEM('',(#1060),#990,#4170);
#4200=OVER_RIDING_STYLED_ITEM('',(#1390),#1320,#4170);
#4210=OVER_RIDING_STYLED_ITEM('',(#1780),#1710,#4170);
#4220=OVER_RIDING_STYLED_ITEM('',(#2310),#2240,#4170);
#4230=OVER_RIDING_STYLED_ITEM('',(#2550),#2480,#4170);
#4240=OVER_RIDING_STYLED_ITEM('',(#2830),#2760,#4170);
#4250=OVER_RIDING_STYLED_ITEM('',(#3070),#3000,#4170);
#4260=OVER_RIDING_STYLED_ITEM('',(#3270),#3200,#4170);
#4270=OVER_RIDING_STYLED_ITEM('',(#3460),#3390,#4170);
#4280=OVER_RIDING_STYLED_ITEM('',(#3650),#3580,#4170);
#4290=OVER_RIDING_STYLED_ITEM('',(#3840),#3770,#4170);
#4300=DRAUGHTING_MODEL('',(#4170,#4180,#4190,#4200,#4210,#4220,#4230,
#4240,#4250,#4260,#4270,#4280,#4290),#4060);
#4310=CARTESIAN_POINT('',(-45.4058180398275,2.51249999999998,
-65.7970180907562));
#4320=DIRECTION('',(3.92058863470931E-17,-1.,1.53710152426118E-33));
#4330=DIRECTION('',(1.,3.92058863470931E-17,3.92058863470931E-17));
#4340=AXIS2_PLACEMENT_3D('',#4310,#4320,#4330);
#4350=ITEM_DEFINED_TRANSFORMATION('MPS-IH-WH-select','',#3900,#4340);
#4360=APPLICATION_CONTEXT(' ');
#4370=APPLICATION_PROTOCOL_DEFINITION(' ','automotive_design',1998,#4360
);
#4380=PRODUCT_CONTEXT('',#4360,'mechanical');
#4390=PRODUCT_DEFINITION_CONTEXT('part definition',#4360,'design');
#4400=PRODUCT('MPS-IH-WH-select','MPS-IH-WH-select','',(#4380));
#4410=PRODUCT_RELATED_PRODUCT_CATEGORY('part',' ',(#4400));
#4420=PRODUCT_DEFINITION_FORMATION_WITH_SPECIFIED_SOURCE('','',#4400,
.BOUGHT.);
#4430=PRODUCT_DEFINITION('',' ',#4420,#4390);
#4440=PRODUCT_DEFINITION_SHAPE('','',#4430);
#4450=DIMENSIONAL_EXPONENTS(1.,0.,0.,0.,0.,0.,0.);
#4460=DIMENSIONAL_EXPONENTS(0.,0.,0.,0.,0.,0.,0.);
#4470=DIMENSIONAL_EXPONENTS(0.,0.,0.,0.,0.,0.,0.);
#4480=(LENGTH_UNIT() NAMED_UNIT(*) SI_UNIT(.MILLI.,.METRE.));
#4490=(NAMED_UNIT(*) PLANE_ANGLE_UNIT() SI_UNIT($,.RADIAN.));
#4500=(NAMED_UNIT(*) SI_UNIT($,.STERADIAN.) SOLID_ANGLE_UNIT());
#4510=(GEOMETRIC_REPRESENTATION_CONTEXT(3) 
GLOBAL_UNCERTAINTY_ASSIGNED_CONTEXT((#4520)) 
GLOBAL_UNIT_ASSIGNED_CONTEXT((#4480,#4490,#4500)) REPRESENTATION_CONTEXT
('',''));
#4520=UNCERTAINTY_MEASURE_WITH_UNIT(LENGTH_MEASURE(1.E-6),#4480,
'distance_accuracy_value','maximum gap value');
#4530=SHAPE_REPRESENTATION('',(#3900,#4340),#4510);
#4540=SHAPE_DEFINITION_REPRESENTATION(#4440,#4530);
#4550=(REPRESENTATION_RELATIONSHIP('','',#4080,#4530) 
REPRESENTATION_RELATIONSHIP_WITH_TRANSFORMATION(#4350) 
SHAPE_REPRESENTATION_RELATIONSHIP());
#4560=NEXT_ASSEMBLY_USAGE_OCCURRENCE('1','','MPS-IH-WH-select',#4430,
#3980,'');
#4570=PRODUCT_DEFINITION_SHAPE('','',#4560);
#4580=CONTEXT_DEPENDENT_SHAPE_REPRESENTATION(#4550,#4570);
ENDSEC;
END-ISO-10303-21;
