ISO-10303-21;
HEADER;
FILE_DESCRIPTION(('Creo Elements/Direct Modeling STEP Export'),'2;1');
FILE_NAME(
'C:/temp/JobSpoolerServerData/JobServer Files/e2517a14-3a95-4efd-83ca-5e
e58d62f2cd/work/output/model.stp','2020-02-12T14:31:37',(''),(''),
'Creo Elements/Direct Modeling STEP processor for AP214 (Solid Model)',
'Creo Elements/Direct Modeling 20.1A  29-Sep-2018 (C) Parametric Technol
ogy GmbH','');
FILE_SCHEMA(('AUTOMOTIVE_DESIGN { 1 0 10303 214 1 1 1 1 }'));
ENDSEC;
DATA;
#10=CARTESIAN_POINT('',(47.9183180398275,65.7970180907559,
7.105427357601E-15));
#20=DIRECTION('',(1.91052250483214E-31,-1.,2.74122250617291E-17));
#30=DIRECTION('',(1.,-1.14503107314641E-17,1.88737914186277E-15));
#40=AXIS2_PLACEMENT_3D('',#10,#20,#30);
#50=CYLINDRICAL_SURFACE('',#40,2.0875);
#60=CARTESIAN_POINT('',(47.9183180398275,67.1970180907559,0.));
#70=DIRECTION('',(-2.46519032881566E-32,-1.,2.74122250617295E-17));
#80=DIRECTION('',(1.,-1.14503107314641E-17,1.88737914186277E-15));
#90=AXIS2_PLACEMENT_3D('',#60,#70,#80);
#100=CIRCLE('',#90,2.0875);
#110=CARTESIAN_POINT('',(46.1654707337581,67.1970180907559,
-1.13365893089824));
#120=VERTEX_POINT('',#110);
#130=CARTESIAN_POINT('',(50.0058180398275,67.1970180907559,
1.10069542011531E-14));
#140=VERTEX_POINT('',#130);
#150=EDGE_CURVE('',#120,#140,#100,.T.);
#160=ORIENTED_EDGE('',*,*,#150,.F.);
#170=CARTESIAN_POINT('',(50.0058180398275,65.7970180907559,
1.10453313162395E-14));
#180=DIRECTION('',(1.91052250483214E-31,-1.,2.74122250617291E-17));
#190=VECTOR('',#180,1.);
#200=LINE('',#170,#190);
#210=CARTESIAN_POINT('',(50.0058180398275,65.7970180907559,
1.10453313162395E-14));
#220=VERTEX_POINT('',#210);
#230=EDGE_CURVE('',#140,#220,#200,.T.);
#240=ORIENTED_EDGE('',*,*,#230,.F.);
#250=CARTESIAN_POINT('',(47.9183180398275,65.7970180907559,0.));
#260=DIRECTION('',(-2.46519032881566E-32,-1.,2.74122250617295E-17));
#270=DIRECTION('',(1.,-1.14503107314641E-17,1.88737914186277E-15));
#280=AXIS2_PLACEMENT_3D('',#250,#260,#270);
#290=CIRCLE('',#280,2.0875);
#300=CARTESIAN_POINT('',(48.3701357339233,65.7970180907559,
-2.03801791486285));
#310=VERTEX_POINT('',#300);
#320=EDGE_CURVE('',#310,#220,#290,.T.);
#330=ORIENTED_EDGE('',*,*,#320,.T.);
#340=CARTESIAN_POINT('',(45.8308180398275,65.7970180907559,
3.42116841828449E-15));
#350=VERTEX_POINT('',#340);
#360=EDGE_CURVE('',#350,#310,#290,.T.);
#370=ORIENTED_EDGE('',*,*,#360,.T.);
#380=CARTESIAN_POINT('',(45.8308180398275,65.7970180907559,
3.42116841828449E-15));
#390=DIRECTION('',(1.91052250483214E-31,-1.,2.74122250617291E-17));
#400=VECTOR('',#390,1.);
#410=LINE('',#380,#400);
#420=CARTESIAN_POINT('',(45.8308180398275,67.1970180907559,
3.38279130319807E-15));
#430=VERTEX_POINT('',#420);
#440=EDGE_CURVE('',#430,#350,#410,.T.);
#450=ORIENTED_EDGE('',*,*,#440,.T.);
#460=EDGE_CURVE('',#430,#120,#100,.T.);
#470=ORIENTED_EDGE('',*,*,#460,.F.);
#480=EDGE_LOOP('',(#470,#450,#370,#330,#240,#160));
#490=FACE_OUTER_BOUND('',#480,.T.);
#500=ADVANCED_FACE('',(#490),#50,.F.);
#510=COLOUR_RGB('',0.541176497936249,0.0705882385373116,
0.0784313753247261);
#520=FILL_AREA_STYLE_COLOUR('',#510);
#530=FILL_AREA_STYLE('',(#520));
#540=SURFACE_STYLE_FILL_AREA(#530);
#550=SURFACE_SIDE_STYLE('',(#540));
#560=SURFACE_STYLE_USAGE(.BOTH.,#550);
#570=PRESENTATION_STYLE_ASSIGNMENT((#560));
#580=CARTESIAN_POINT('',(47.9183180398275,65.7970180907559,0.));
#590=DIRECTION('',(-2.46519032881566E-32,-1.,2.74122250617295E-17));
#600=DIRECTION('',(1.,-1.14503107314641E-17,1.88737914186277E-15));
#610=AXIS2_PLACEMENT_3D('',#580,#590,#600);
#620=CYLINDRICAL_SURFACE('',#610,1.62);
#630=CARTESIAN_POINT('',(46.2983180398275,65.7970180907559,
-2.85916142835581E-15));
#640=DIRECTION('',(-2.46519032881566E-32,-1.,2.74122250617294E-17));
#650=VECTOR('',#640,1.);
#660=LINE('',#630,#650);
#670=CARTESIAN_POINT('',(46.2983180398275,70.4970180907559,
-2.98799888614594E-15));
#680=VERTEX_POINT('',#670);
#690=CARTESIAN_POINT('',(46.2983180398275,67.1970180907559,
-2.89753854344223E-15));
#700=VERTEX_POINT('',#690);
#710=EDGE_CURVE('',#680,#700,#660,.T.);
#720=ORIENTED_EDGE('',*,*,#710,.T.);
#730=CARTESIAN_POINT('',(47.9183180398275,70.4970180907559,0.));
#740=DIRECTION('',(-2.46519032881566E-32,-1.,2.74122250617295E-17));
#750=DIRECTION('',(1.,-1.14503107314641E-17,1.88737914186277E-15));
#760=AXIS2_PLACEMENT_3D('',#730,#740,#750);
#770=CIRCLE('',#760,1.62);
#780=CARTESIAN_POINT('',(49.5383180398275,70.4970180907559,
2.92871675202756E-15));
#790=VERTEX_POINT('',#780);
#800=EDGE_CURVE('',#680,#790,#770,.T.);
#810=ORIENTED_EDGE('',*,*,#800,.F.);
#820=CARTESIAN_POINT('',(49.5383180398275,65.7970180907559,
3.05755420981769E-15));
#830=DIRECTION('',(-2.46519032881566E-32,-1.,2.74122250617294E-17));
#840=VECTOR('',#830,1.);
#850=LINE('',#820,#840);
#860=CARTESIAN_POINT('',(49.5383180398275,67.1970180907559,
3.01917709473127E-15));
#870=VERTEX_POINT('',#860);
#880=EDGE_CURVE('',#790,#870,#850,.T.);
#890=ORIENTED_EDGE('',*,*,#880,.F.);
#900=CARTESIAN_POINT('',(47.9183180398275,67.1970180907559,0.));
#910=DIRECTION('',(-2.46519032881566E-32,-1.,2.74122250617295E-17));
#920=DIRECTION('',(1.,-1.14503107314641E-17,1.88737914186277E-15));
#930=AXIS2_PLACEMENT_3D('',#900,#910,#920);
#940=CIRCLE('',#930,1.62);
#950=EDGE_CURVE('',#700,#870,#940,.T.);
#960=ORIENTED_EDGE('',*,*,#950,.T.);
#970=EDGE_LOOP('',(#960,#890,#810,#720));
#980=FACE_OUTER_BOUND('',#970,.T.);
#990=ADVANCED_FACE('',(#980),#620,.F.);
#1000=COLOUR_RGB('',0.541176497936249,0.0705882385373116,
0.0784313753247261);
#1010=FILL_AREA_STYLE_COLOUR('',#1000);
#1020=FILL_AREA_STYLE('',(#1010));
#1030=SURFACE_STYLE_FILL_AREA(#1020);
#1040=SURFACE_SIDE_STYLE('',(#1030));
#1050=SURFACE_STYLE_USAGE(.BOTH.,#1040);
#1060=PRESENTATION_STYLE_ASSIGNMENT((#1050));
#1070=CARTESIAN_POINT('',(48.9865537492937,93.2970180907559,
-0.44247771867213));
#1080=DIRECTION('',(1.4648342812113E-17,1.,-2.55557704473121E-17));
#1090=DIRECTION('',(0.923879532511287,-2.33130740608317E-17,
-0.382683432365088));
#1100=AXIS2_PLACEMENT_3D('',#1070,#1080,#1090);
#1110=PLANE('',#1100);
#1120=CARTESIAN_POINT('',(47.9183180398275,93.2970180907559,0.));
#1130=DIRECTION('',(-2.46519032881566E-32,-1.,2.74122250617295E-17));
#1140=DIRECTION('',(1.,-2.53280985392786E-17,1.77635683940025E-15));
#1150=AXIS2_PLACEMENT_3D('',#1120,#1130,#1140);
#1160=CIRCLE('',#1150,1.5375);
#1170=CARTESIAN_POINT('',(49.4558180398275,93.2970180907559,
-4.1281982422779E-15));
#1180=VERTEX_POINT('',#1170);
#1190=CARTESIAN_POINT('',(46.3808180398275,93.2970180907559,
-9.743599658137E-15));
#1200=VERTEX_POINT('',#1190);
#1210=EDGE_CURVE('',#1180,#1200,#1160,.T.);
#1220=ORIENTED_EDGE('',*,*,#1210,.T.);
#1230=EDGE_CURVE('',#1200,#1180,#1160,.T.);
#1240=ORIENTED_EDGE('',*,*,#1230,.T.);
#1250=EDGE_LOOP('',(#1240,#1220));
#1260=FACE_BOUND('',#1250,.T.);
#1270=CARTESIAN_POINT('',(47.9183180398275,93.2970180907559,
-4.44089209850063E-16));
#1280=DIRECTION('',(-2.46519032881566E-32,-1.,2.74122250617295E-17));
#1290=DIRECTION('',(0.608761429008723,2.17475803175381E-17,
0.793353340291233));
#1300=AXIS2_PLACEMENT_3D('',#1270,#1280,#1290);
#1310=CIRCLE('',#1300,2.3125);
#1320=CARTESIAN_POINT('',(46.0904026286713,93.2970180907559,
1.41646796633651));
#1330=VERTEX_POINT('',#1320);
#1340=CARTESIAN_POINT('',(45.6256017979006,93.2970180907559,
0.301841819508864));
#1350=VERTEX_POINT('',#1340);
#1360=EDGE_CURVE('',#1330,#1350,#1310,.T.);
#1370=ORIENTED_EDGE('',*,*,#1360,.F.);
#1380=CARTESIAN_POINT('',(50.2110342817544,93.2970180907559,
-0.301841819508867));
#1390=VERTEX_POINT('',#1380);
#1400=EDGE_CURVE('',#1350,#1390,#1310,.T.);
#1410=ORIENTED_EDGE('',*,*,#1400,.F.);
#1420=EDGE_CURVE('',#1390,#1330,#1310,.T.);
#1430=ORIENTED_EDGE('',*,*,#1420,.F.);
#1440=EDGE_LOOP('',(#1430,#1410,#1370));
#1450=FACE_OUTER_BOUND('',#1440,.T.);
#1460=ADVANCED_FACE('',(#1260,#1450),#1110,.T.);
#1470=COLOUR_RGB('',0.541176497936249,0.0705882385373116,
0.0784313753247261);
#1480=FILL_AREA_STYLE_COLOUR('',#1470);
#1490=FILL_AREA_STYLE('',(#1480));
#1500=SURFACE_STYLE_FILL_AREA(#1490);
#1510=SURFACE_SIDE_STYLE('',(#1500));
#1520=SURFACE_STYLE_USAGE(.BOTH.,#1510);
#1530=PRESENTATION_STYLE_ASSIGNMENT((#1520));
#1540=CARTESIAN_POINT('',(47.328728622368,67.1970180907559,
-0.775994539892032));
#1550=DIRECTION('',(-1.14503107314642E-17,-1.,2.08166817117216E-17));
#1560=DIRECTION('',(1.,-1.14503107314641E-17,1.88737914186277E-15));
#1570=AXIS2_PLACEMENT_3D('',#1540,#1550,#1560);
#1580=PLANE('',#1570);
#1590=EDGE_CURVE('',#870,#700,#940,.T.);
#1600=ORIENTED_EDGE('',*,*,#1590,.F.);
#1610=ORIENTED_EDGE('',*,*,#950,.F.);
#1620=EDGE_LOOP('',(#1610,#1600));
#1630=FACE_BOUND('',#1620,.T.);
#1640=EDGE_CURVE('',#140,#430,#100,.T.);
#1650=ORIENTED_EDGE('',*,*,#1640,.T.);
#1660=ORIENTED_EDGE('',*,*,#150,.T.);
#1670=ORIENTED_EDGE('',*,*,#460,.T.);
#1680=EDGE_LOOP('',(#1670,#1660,#1650));
#1690=FACE_OUTER_BOUND('',#1680,.T.);
#1700=ADVANCED_FACE('',(#1630,#1690),#1580,.T.);
#1710=COLOUR_RGB('',0.541176497936249,0.0705882385373116,
0.0784313753247261);
#1720=FILL_AREA_STYLE_COLOUR('',#1710);
#1730=FILL_AREA_STYLE('',(#1720));
#1740=SURFACE_STYLE_FILL_AREA(#1730);
#1750=SURFACE_SIDE_STYLE('',(#1740));
#1760=SURFACE_STYLE_USAGE(.BOTH.,#1750);
#1770=PRESENTATION_STYLE_ASSIGNMENT((#1760));
#1780=CARTESIAN_POINT('',(47.9183180398275,65.7970180907559,0.));
#1790=DIRECTION('',(0.,-1.,4.11349932959262E-17));
#1800=DIRECTION('',(0.991444861373811,-1.3348463230542E-18,
-0.13052619222005));
#1810=AXIS2_PLACEMENT_3D('',#1780,#1790,#1800);
#1820=CONICAL_SURFACE('',#1810,2.5125,0.00727259905240371);
#1830=CARTESIAN_POINT('',(50.4093232540292,65.7970180907559,
-0.327947057952876));
#1840=DIRECTION('',(0.00721031739916005,-0.999973554768071,
-0.000949256293997225));
#1850=VECTOR('',#1840,345.477886242828);
#1860=LINE('',#1830,#1850);
#1870=CARTESIAN_POINT('',(50.4093232540292,65.7970180907559,
-0.327947057952876));
#1880=VERTEX_POINT('',#1870);
#1890=EDGE_CURVE('',#1390,#1880,#1860,.T.);
#1900=ORIENTED_EDGE('',*,*,#1890,.F.);
#1910=CARTESIAN_POINT('',(47.9183180398275,65.7970180907559,0.));
#1920=DIRECTION('',(-2.46519032881566E-32,-1.,2.74122250617295E-17));
#1930=DIRECTION('',(0.99144486137381,-2.18447627427156E-17,
0.130526192220054));
#1940=AXIS2_PLACEMENT_3D('',#1910,#1920,#1930);
#1950=CIRCLE('',#1940,2.5125);
#1960=CARTESIAN_POINT('',(45.4273128256258,65.7970180907559,
0.327947057952875));
#1970=VERTEX_POINT('',#1960);
#1980=EDGE_CURVE('',#1880,#1970,#1950,.T.);
#1990=ORIENTED_EDGE('',*,*,#1980,.F.);
#2000=CARTESIAN_POINT('',(45.4273128256258,65.7970180907559,
0.327947057952875));
#2010=DIRECTION('',(-0.00721031739916005,-0.999973554768071,
0.000949256293997305));
#2020=VECTOR('',#2010,345.477886242828);
#2030=LINE('',#2000,#2020);
#2040=EDGE_CURVE('',#1350,#1970,#2030,.T.);
#2050=ORIENTED_EDGE('',*,*,#2040,.T.);
#2060=ORIENTED_EDGE('',*,*,#1360,.T.);
#2070=ORIENTED_EDGE('',*,*,#1420,.T.);
#2080=EDGE_LOOP('',(#2070,#2060,#2050,#1990,#1900));
#2090=FACE_OUTER_BOUND('',#2080,.T.);
#2100=ADVANCED_FACE('',(#2090),#1820,.T.);
#2110=COLOUR_RGB('',0.541176497936249,0.0705882385373116,
0.0784313753247261);
#2120=FILL_AREA_STYLE_COLOUR('',#2110);
#2130=FILL_AREA_STYLE('',(#2120));
#2140=SURFACE_STYLE_FILL_AREA(#2130);
#2150=SURFACE_SIDE_STYLE('',(#2140));
#2160=SURFACE_STYLE_USAGE(.BOTH.,#2150);
#2170=PRESENTATION_STYLE_ASSIGNMENT((#2160));
#2180=CARTESIAN_POINT('',(48.9149681735684,65.7970180907559,
-0.764756545192206));
#2190=DIRECTION('',(3.15298636638278E-18,1.,-2.51938482398112E-17));
#2200=DIRECTION('',(-0.793353340291236,1.78384753223588E-17,
0.608761429008719));
#2210=AXIS2_PLACEMENT_3D('',#2180,#2190,#2200);
#2220=PLANE('',#2210);
#2230=ORIENTED_EDGE('',*,*,#320,.F.);
#2240=EDGE_CURVE('',#220,#350,#290,.T.);
#2250=ORIENTED_EDGE('',*,*,#2240,.F.);
#2260=ORIENTED_EDGE('',*,*,#360,.F.);
#2270=EDGE_LOOP('',(#2260,#2250,#2230));
#2280=FACE_BOUND('',#2270,.T.);
#2290=ORIENTED_EDGE('',*,*,#1980,.T.);
#2300=CARTESIAN_POINT('',(50.3712617577163,65.7970180907559,
-0.543804530019484));
#2310=VERTEX_POINT('',#2300);
#2320=EDGE_CURVE('',#2310,#1880,#1950,.T.);
#2330=ORIENTED_EDGE('',*,*,#2320,.T.);
#2340=EDGE_CURVE('',#1970,#2310,#1950,.T.);
#2350=ORIENTED_EDGE('',*,*,#2340,.T.);
#2360=EDGE_LOOP('',(#2350,#2330,#2290));
#2370=FACE_OUTER_BOUND('',#2360,.T.);
#2380=ADVANCED_FACE('',(#2280,#2370),#2220,.F.);
#2390=COLOUR_RGB('',0.541176497936249,0.0705882385373116,
0.0784313753247261);
#2400=FILL_AREA_STYLE_COLOUR('',#2390);
#2410=FILL_AREA_STYLE('',(#2400));
#2420=SURFACE_STYLE_FILL_AREA(#2410);
#2430=SURFACE_SIDE_STYLE('',(#2420));
#2440=SURFACE_STYLE_USAGE(.BOTH.,#2430);
#2450=PRESENTATION_STYLE_ASSIGNMENT((#2440));
#2460=CARTESIAN_POINT('',(47.9183180398275,96.0470204907559,
-7.105427357601E-15));
#2470=DIRECTION('',(-2.46519032881566E-32,-1.,2.74122250617295E-17));
#2480=DIRECTION('',(1.,-1.14503107314641E-17,1.88737914186277E-15));
#2490=AXIS2_PLACEMENT_3D('',#2460,#2470,#2480);
#2500=CYLINDRICAL_SURFACE('',#2490,1.5375);
#2510=CARTESIAN_POINT('',(49.4558180398275,96.0470204907559,
-4.203581926987E-15));
#2520=DIRECTION('',(-2.46519032881566E-32,-1.,2.74122250617294E-17));
#2530=VECTOR('',#2520,1.);
#2540=LINE('',#2510,#2530);
#2550=CARTESIAN_POINT('',(49.4558180398275,70.4970180907559,
-3.50319951087047E-15));
#2560=VERTEX_POINT('',#2550);
#2570=EDGE_CURVE('',#1180,#2560,#2540,.T.);
#2580=ORIENTED_EDGE('',*,*,#2570,.F.);
#2590=CARTESIAN_POINT('',(47.9183180398275,70.4970180907559,0.));
#2600=DIRECTION('',(-2.46519032881566E-32,-1.,2.74122250617295E-17));
#2610=DIRECTION('',(1.,-1.14503107314641E-17,1.88737914186277E-15));
#2620=AXIS2_PLACEMENT_3D('',#2590,#2600,#2610);
#2630=CIRCLE('',#2620,1.5375);
#2640=CARTESIAN_POINT('',(46.3808180398275,70.4970180907559,
-9.11860092672957E-15));
#2650=VERTEX_POINT('',#2640);
#2660=EDGE_CURVE('',#2650,#2560,#2630,.T.);
#2670=ORIENTED_EDGE('',*,*,#2660,.T.);
#2680=CARTESIAN_POINT('',(46.3808180398275,96.0470204907559,
-9.8189833428461E-15));
#2690=DIRECTION('',(-2.46519032881566E-32,-1.,2.74122250617294E-17));
#2700=VECTOR('',#2690,1.);
#2710=LINE('',#2680,#2700);
#2720=EDGE_CURVE('',#1200,#2650,#2710,.T.);
#2730=ORIENTED_EDGE('',*,*,#2720,.T.);
#2740=ORIENTED_EDGE('',*,*,#1230,.F.);
#2750=EDGE_LOOP('',(#2740,#2730,#2670,#2580));
#2760=FACE_OUTER_BOUND('',#2750,.T.);
#2770=ADVANCED_FACE('',(#2760),#2500,.F.);
#2780=COLOUR_RGB('',0.541176497936249,0.0705882385373116,
0.0784313753247261);
#2790=FILL_AREA_STYLE_COLOUR('',#2780);
#2800=FILL_AREA_STYLE('',(#2790));
#2810=SURFACE_STYLE_FILL_AREA(#2800);
#2820=SURFACE_SIDE_STYLE('',(#2810));
#2830=SURFACE_STYLE_USAGE(.BOTH.,#2820);
#2840=PRESENTATION_STYLE_ASSIGNMENT((#2830));
#2850=CARTESIAN_POINT('',(47.328728622368,70.4970180907559,
-0.775994539892032));
#2860=DIRECTION('',(-1.14503107314642E-17,-1.,2.08166817117216E-17));
#2870=DIRECTION('',(1.,-1.14503107314641E-17,1.88737914186277E-15));
#2880=AXIS2_PLACEMENT_3D('',#2850,#2860,#2870);
#2890=PLANE('',#2880);
#2900=EDGE_CURVE('',#2560,#2650,#2630,.T.);
#2910=ORIENTED_EDGE('',*,*,#2900,.F.);
#2920=ORIENTED_EDGE('',*,*,#2660,.F.);
#2930=EDGE_LOOP('',(#2920,#2910));
#2940=FACE_BOUND('',#2930,.T.);
#2950=EDGE_CURVE('',#790,#680,#770,.T.);
#2960=ORIENTED_EDGE('',*,*,#2950,.T.);
#2970=ORIENTED_EDGE('',*,*,#800,.T.);
#2980=EDGE_LOOP('',(#2970,#2960));
#2990=FACE_OUTER_BOUND('',#2980,.T.);
#3000=ADVANCED_FACE('',(#2940,#2990),#2890,.T.);
#3010=COLOUR_RGB('',0.541176497936249,0.0705882385373116,
0.0784313753247261);
#3020=FILL_AREA_STYLE_COLOUR('',#3010);
#3030=FILL_AREA_STYLE('',(#3020));
#3040=SURFACE_STYLE_FILL_AREA(#3030);
#3050=SURFACE_SIDE_STYLE('',(#3040));
#3060=SURFACE_STYLE_USAGE(.BOTH.,#3050);
#3070=PRESENTATION_STYLE_ASSIGNMENT((#3060));
#3080=CARTESIAN_POINT('',(47.9183180398275,65.7970180907559,0.));
#3090=DIRECTION('',(-2.46519032881566E-32,-1.,2.74122250617295E-17));
#3100=DIRECTION('',(1.,-1.14503107314641E-17,1.88737914186277E-15));
#3110=AXIS2_PLACEMENT_3D('',#3080,#3090,#3100);
#3120=CYLINDRICAL_SURFACE('',#3110,1.62);
#3130=ORIENTED_EDGE('',*,*,#2950,.F.);
#3140=ORIENTED_EDGE('',*,*,#710,.F.);
#3150=ORIENTED_EDGE('',*,*,#1590,.T.);
#3160=ORIENTED_EDGE('',*,*,#880,.T.);
#3170=EDGE_LOOP('',(#3160,#3150,#3140,#3130));
#3180=FACE_OUTER_BOUND('',#3170,.T.);
#3190=ADVANCED_FACE('',(#3180),#3120,.F.);
#3200=COLOUR_RGB('',0.541176497936249,0.0705882385373116,
0.0784313753247261);
#3210=FILL_AREA_STYLE_COLOUR('',#3200);
#3220=FILL_AREA_STYLE('',(#3210));
#3230=SURFACE_STYLE_FILL_AREA(#3220);
#3240=SURFACE_SIDE_STYLE('',(#3230));
#3250=SURFACE_STYLE_USAGE(.BOTH.,#3240);
#3260=PRESENTATION_STYLE_ASSIGNMENT((#3250));
#3270=CARTESIAN_POINT('',(47.9183180398275,65.7970180907559,
7.105427357601E-15));
#3280=DIRECTION('',(1.91052250483214E-31,-1.,2.74122250617291E-17));
#3290=DIRECTION('',(1.,-1.14503107314641E-17,1.88737914186277E-15));
#3300=AXIS2_PLACEMENT_3D('',#3270,#3280,#3290);
#3310=CYLINDRICAL_SURFACE('',#3300,2.0875);
#3320=ORIENTED_EDGE('',*,*,#1640,.F.);
#3330=ORIENTED_EDGE('',*,*,#440,.F.);
#3340=ORIENTED_EDGE('',*,*,#2240,.T.);
#3350=ORIENTED_EDGE('',*,*,#230,.T.);
#3360=EDGE_LOOP('',(#3350,#3340,#3330,#3320));
#3370=FACE_OUTER_BOUND('',#3360,.T.);
#3380=ADVANCED_FACE('',(#3370),#3310,.F.);
#3390=COLOUR_RGB('',0.541176497936249,0.0705882385373116,
0.0784313753247261);
#3400=FILL_AREA_STYLE_COLOUR('',#3390);
#3410=FILL_AREA_STYLE('',(#3400));
#3420=SURFACE_STYLE_FILL_AREA(#3410);
#3430=SURFACE_SIDE_STYLE('',(#3420));
#3440=SURFACE_STYLE_USAGE(.BOTH.,#3430);
#3450=PRESENTATION_STYLE_ASSIGNMENT((#3440));
#3460=CARTESIAN_POINT('',(47.9183180398275,96.0470204907559,
-7.105427357601E-15));
#3470=DIRECTION('',(-2.46519032881566E-32,-1.,2.74122250617295E-17));
#3480=DIRECTION('',(1.,-1.14503107314641E-17,1.88737914186277E-15));
#3490=AXIS2_PLACEMENT_3D('',#3460,#3470,#3480);
#3500=CYLINDRICAL_SURFACE('',#3490,1.5375);
#3510=ORIENTED_EDGE('',*,*,#1210,.F.);
#3520=ORIENTED_EDGE('',*,*,#2720,.F.);
#3530=ORIENTED_EDGE('',*,*,#2900,.T.);
#3540=ORIENTED_EDGE('',*,*,#2570,.T.);
#3550=EDGE_LOOP('',(#3540,#3530,#3520,#3510));
#3560=FACE_OUTER_BOUND('',#3550,.T.);
#3570=ADVANCED_FACE('',(#3560),#3500,.F.);
#3580=COLOUR_RGB('',0.541176497936249,0.0705882385373116,
0.0784313753247261);
#3590=FILL_AREA_STYLE_COLOUR('',#3580);
#3600=FILL_AREA_STYLE('',(#3590));
#3610=SURFACE_STYLE_FILL_AREA(#3600);
#3620=SURFACE_SIDE_STYLE('',(#3610));
#3630=SURFACE_STYLE_USAGE(.BOTH.,#3620);
#3640=PRESENTATION_STYLE_ASSIGNMENT((#3630));
#3650=CARTESIAN_POINT('',(47.9183180398275,65.7970180907559,0.));
#3660=DIRECTION('',(0.,-1.,4.11349932959262E-17));
#3670=DIRECTION('',(0.991444861373811,-1.3348463230542E-18,
-0.13052619222005));
#3680=AXIS2_PLACEMENT_3D('',#3650,#3660,#3670);
#3690=CONICAL_SURFACE('',#3680,2.5125,0.00727259905240371);
#3700=ORIENTED_EDGE('',*,*,#2320,.F.);
#3710=ORIENTED_EDGE('',*,*,#1890,.T.);
#3720=ORIENTED_EDGE('',*,*,#1400,.T.);
#3730=ORIENTED_EDGE('',*,*,#2040,.F.);
#3740=ORIENTED_EDGE('',*,*,#2340,.F.);
#3750=EDGE_LOOP('',(#3740,#3730,#3720,#3710,#3700));
#3760=FACE_OUTER_BOUND('',#3750,.T.);
#3770=ADVANCED_FACE('',(#3760),#3690,.T.);
#3780=COLOUR_RGB('',0.541176497936249,0.0705882385373116,
0.0784313753247261);
#3790=FILL_AREA_STYLE_COLOUR('',#3780);
#3800=FILL_AREA_STYLE('',(#3790));
#3810=SURFACE_STYLE_FILL_AREA(#3800);
#3820=SURFACE_SIDE_STYLE('',(#3810));
#3830=SURFACE_STYLE_USAGE(.BOTH.,#3820);
#3840=PRESENTATION_STYLE_ASSIGNMENT((#3830));
#3850=CLOSED_SHELL('',(#500,#990,#1460,#1700,#2100,#2380,#2770,#3000,
#3190,#3380,#3570,#3770));
#3860=MANIFOLD_SOLID_BREP('',#3850);
#3870=CARTESIAN_POINT('',(0.,0.,0.));
#3880=DIRECTION('',(0.,0.,1.));
#3890=DIRECTION('',(1.,0.,0.));
#3900=AXIS2_PLACEMENT_3D('',#3870,#3880,#3890);
#3910=APPLICATION_CONTEXT(' ');
#3920=APPLICATION_PROTOCOL_DEFINITION(' ','automotive_design',1998,#3910
);
#3930=PRODUCT_CONTEXT('',#3910,'mechanical');
#3940=PRODUCT_DEFINITION_CONTEXT('part definition',#3910,'design');
#3950=PRODUCT('MPS-IH-RD-select','MPS-IH-RD-select','',(#3930));
#3960=PRODUCT_RELATED_PRODUCT_CATEGORY('part',' ',(#3950));
#3970=PRODUCT_DEFINITION_FORMATION_WITH_SPECIFIED_SOURCE('','',#3950,
.BOUGHT.);
#3980=PRODUCT_DEFINITION('',' ',#3970,#3940);
#3990=PRODUCT_DEFINITION_SHAPE('','',#3980);
#4000=DIMENSIONAL_EXPONENTS(1.,0.,0.,0.,0.,0.,0.);
#4010=DIMENSIONAL_EXPONENTS(0.,0.,0.,0.,0.,0.,0.);
#4020=DIMENSIONAL_EXPONENTS(0.,0.,0.,0.,0.,0.,0.);
#4030=(LENGTH_UNIT() NAMED_UNIT(*) SI_UNIT(.MILLI.,.METRE.));
#4040=(NAMED_UNIT(*) PLANE_ANGLE_UNIT() SI_UNIT($,.RADIAN.));
#4050=(NAMED_UNIT(*) SI_UNIT($,.STERADIAN.) SOLID_ANGLE_UNIT());
#4060=(GEOMETRIC_REPRESENTATION_CONTEXT(3) 
GLOBAL_UNCERTAINTY_ASSIGNED_CONTEXT((#4070)) 
GLOBAL_UNIT_ASSIGNED_CONTEXT((#4030,#4040,#4050)) REPRESENTATION_CONTEXT
('',''));
#4070=UNCERTAINTY_MEASURE_WITH_UNIT(LENGTH_MEASURE(1.E-6),#4030,
'distance_accuracy_value','maximum gap value');
#4080=ADVANCED_BREP_SHAPE_REPRESENTATION('',(#3900,#3860),#4060);
#4090=SHAPE_DEFINITION_REPRESENTATION(#3990,#4080);
#4100=COLOUR_RGB('',0.541176497936249,0.0705882385373116,
0.0784313753247261);
#4110=FILL_AREA_STYLE_COLOUR('',#4100);
#4120=FILL_AREA_STYLE('',(#4110));
#4130=SURFACE_STYLE_FILL_AREA(#4120);
#4140=SURFACE_SIDE_STYLE('',(#4130));
#4150=SURFACE_STYLE_USAGE(.BOTH.,#4140);
#4160=PRESENTATION_STYLE_ASSIGNMENT((#4150));
#4170=STYLED_ITEM('',(#4160),#3860);
#4180=OVER_RIDING_STYLED_ITEM('',(#570),#500,#4170);
#4190=OVER_RIDING_STYLED_ITEM('',(#1060),#990,#4170);
#4200=OVER_RIDING_STYLED_ITEM('',(#1530),#1460,#4170);
#4210=OVER_RIDING_STYLED_ITEM('',(#1770),#1700,#4170);
#4220=OVER_RIDING_STYLED_ITEM('',(#2170),#2100,#4170);
#4230=OVER_RIDING_STYLED_ITEM('',(#2450),#2380,#4170);
#4240=OVER_RIDING_STYLED_ITEM('',(#2840),#2770,#4170);
#4250=OVER_RIDING_STYLED_ITEM('',(#3070),#3000,#4170);
#4260=OVER_RIDING_STYLED_ITEM('',(#3260),#3190,#4170);
#4270=OVER_RIDING_STYLED_ITEM('',(#3450),#3380,#4170);
#4280=OVER_RIDING_STYLED_ITEM('',(#3640),#3570,#4170);
#4290=OVER_RIDING_STYLED_ITEM('',(#3840),#3770,#4170);
#4300=DRAUGHTING_MODEL('',(#4170,#4180,#4190,#4200,#4210,#4220,#4230,
#4240,#4250,#4260,#4270,#4280,#4290),#4060);
#4310=CARTESIAN_POINT('',(-45.4058180398275,2.51249999999998,
-65.7970180907562));
#4320=DIRECTION('',(3.92058863470931E-17,-1.,1.53710152426118E-33));
#4330=DIRECTION('',(1.,3.92058863470931E-17,3.92058863470931E-17));
#4340=AXIS2_PLACEMENT_3D('',#4310,#4320,#4330);
#4350=ITEM_DEFINED_TRANSFORMATION('MPS-IH-RD-select','',#3900,#4340);
#4360=APPLICATION_CONTEXT(' ');
#4370=APPLICATION_PROTOCOL_DEFINITION(' ','automotive_design',1998,#4360
);
#4380=PRODUCT_CONTEXT('',#4360,'mechanical');
#4390=PRODUCT_DEFINITION_CONTEXT('part definition',#4360,'design');
#4400=PRODUCT('MPS-IH-RD-select','MPS-IH-RD-select','',(#4380));
#4410=PRODUCT_RELATED_PRODUCT_CATEGORY('part',' ',(#4400));
#4420=PRODUCT_DEFINITION_FORMATION_WITH_SPECIFIED_SOURCE('','',#4400,
.BOUGHT.);
#4430=PRODUCT_DEFINITION('',' ',#4420,#4390);
#4440=PRODUCT_DEFINITION_SHAPE('','',#4430);
#4450=DIMENSIONAL_EXPONENTS(1.,0.,0.,0.,0.,0.,0.);
#4460=DIMENSIONAL_EXPONENTS(0.,0.,0.,0.,0.,0.,0.);
#4470=DIMENSIONAL_EXPONENTS(0.,0.,0.,0.,0.,0.,0.);
#4480=(LENGTH_UNIT() NAMED_UNIT(*) SI_UNIT(.MILLI.,.METRE.));
#4490=(NAMED_UNIT(*) PLANE_ANGLE_UNIT() SI_UNIT($,.RADIAN.));
#4500=(NAMED_UNIT(*) SI_UNIT($,.STERADIAN.) SOLID_ANGLE_UNIT());
#4510=(GEOMETRIC_REPRESENTATION_CONTEXT(3) 
GLOBAL_UNCERTAINTY_ASSIGNED_CONTEXT((#4520)) 
GLOBAL_UNIT_ASSIGNED_CONTEXT((#4480,#4490,#4500)) REPRESENTATION_CONTEXT
('',''));
#4520=UNCERTAINTY_MEASURE_WITH_UNIT(LENGTH_MEASURE(1.E-6),#4480,
'distance_accuracy_value','maximum gap value');
#4530=SHAPE_REPRESENTATION('',(#3900,#4340),#4510);
#4540=SHAPE_DEFINITION_REPRESENTATION(#4440,#4530);
#4550=(REPRESENTATION_RELATIONSHIP('','',#4080,#4530) 
REPRESENTATION_RELATIONSHIP_WITH_TRANSFORMATION(#4350) 
SHAPE_REPRESENTATION_RELATIONSHIP());
#4560=NEXT_ASSEMBLY_USAGE_OCCURRENCE('1','','MPS-IH-RD-select',#4430,
#3980,'');
#4570=PRODUCT_DEFINITION_SHAPE('','',#4560);
#4580=CONTEXT_DEPENDENT_SHAPE_REPRESENTATION(#4550,#4570);
ENDSEC;
END-ISO-10303-21;
