ISO-10303-21;
HEADER;
FILE_DESCRIPTION(('Creo Elements/Direct Modeling STEP Export'),'2;1');
FILE_NAME(
'C:/temp/JobSpoolerServerData/JobServer Files/22bb0eb0-df75-42b7-8a7d-dc
f855d6497d/work/output/model.stp','2020-02-12T14:32:02',(''),(''),
'Creo Elements/Direct Modeling STEP processor for AP214 (Solid Model)',
'Creo Elements/Direct Modeling 20.1A  29-Sep-2018 (C) Parametric Technol
ogy GmbH','');
FILE_SCHEMA(('AUTOMOTIVE_DESIGN { 1 0 10303 214 1 1 1 1 }'));
ENDSEC;
DATA;
#10=CARTESIAN_POINT('',(47.9308180398275,65.7970180907559,
-0.0125000000000455));
#20=DIRECTION('',(1.90552658587605E-15,-1.,2.74122250617256E-17));
#30=DIRECTION('',(1.,1.89407627514458E-15,5.55111512312578E-17));
#40=AXIS2_PLACEMENT_3D('',#10,#20,#30);
#50=CYLINDRICAL_SURFACE('',#40,2.0875);
#60=CARTESIAN_POINT('',(47.9308180398275,67.1970180907559,
-0.0125000000000526));
#70=DIRECTION('',(1.90552658587605E-15,-1.,2.74122250617259E-17));
#80=DIRECTION('',(1.,1.89407627514458E-15,5.55111512312578E-17));
#90=AXIS2_PLACEMENT_3D('',#60,#70,#80);
#100=CIRCLE('',#90,2.0875);
#110=CARTESIAN_POINT('',(46.1779707337581,67.1970180907559,
-1.14615893089828));
#120=VERTEX_POINT('',#110);
#130=CARTESIAN_POINT('',(50.0183180398275,67.1970180907559,
-0.0125000000000454));
#140=VERTEX_POINT('',#130);
#150=EDGE_CURVE('',#120,#140,#100,.T.);
#160=ORIENTED_EDGE('',*,*,#150,.F.);
#170=CARTESIAN_POINT('',(50.0183180398275,65.7970180907559,
-0.0125000000000454));
#180=DIRECTION('',(1.90552658587605E-15,-1.,2.74122250617256E-17));
#190=VECTOR('',#180,1.);
#200=LINE('',#170,#190);
#210=CARTESIAN_POINT('',(50.0183180398275,65.7970180907559,
-0.0125000000000454));
#220=VERTEX_POINT('',#210);
#230=EDGE_CURVE('',#140,#220,#200,.T.);
#240=ORIENTED_EDGE('',*,*,#230,.F.);
#250=CARTESIAN_POINT('',(47.9308180398275,65.7970180907559,
-0.0125000000000526));
#260=DIRECTION('',(1.90552658587605E-15,-1.,2.74122250617259E-17));
#270=DIRECTION('',(1.,1.89407627514458E-15,5.55111512312578E-17));
#280=AXIS2_PLACEMENT_3D('',#250,#260,#270);
#290=CIRCLE('',#280,2.0875);
#300=CARTESIAN_POINT('',(49.9688359546904,65.7970180907559,
-0.464317694095853));
#310=VERTEX_POINT('',#300);
#320=EDGE_CURVE('',#310,#220,#290,.T.);
#330=ORIENTED_EDGE('',*,*,#320,.T.);
#340=CARTESIAN_POINT('',(45.8433180398275,65.7970180907559,
-0.0125000000000453));
#350=VERTEX_POINT('',#340);
#360=EDGE_CURVE('',#350,#310,#290,.T.);
#370=ORIENTED_EDGE('',*,*,#360,.T.);
#380=CARTESIAN_POINT('',(45.8433180398275,65.7970180907559,
-0.0125000000000453));
#390=DIRECTION('',(1.90552658587605E-15,-1.,2.74122250617256E-17));
#400=VECTOR('',#390,1.);
#410=LINE('',#380,#400);
#420=CARTESIAN_POINT('',(45.8433180398275,67.1970180907559,
-0.0125000000000454));
#430=VERTEX_POINT('',#420);
#440=EDGE_CURVE('',#430,#350,#410,.T.);
#450=ORIENTED_EDGE('',*,*,#440,.T.);
#460=EDGE_CURVE('',#430,#120,#100,.T.);
#470=ORIENTED_EDGE('',*,*,#460,.F.);
#480=EDGE_LOOP('',(#470,#450,#370,#330,#240,#160));
#490=FACE_OUTER_BOUND('',#480,.T.);
#500=ADVANCED_FACE('',(#490),#50,.F.);
#510=COLOUR_RGB('',0.,0.443137288093567,0.709803938865662);
#520=FILL_AREA_STYLE_COLOUR('',#510);
#530=FILL_AREA_STYLE('',(#520));
#540=SURFACE_STYLE_FILL_AREA(#530);
#550=SURFACE_SIDE_STYLE('',(#540));
#560=SURFACE_STYLE_USAGE(.BOTH.,#550);
#570=PRESENTATION_STYLE_ASSIGNMENT((#560));
#580=CARTESIAN_POINT('',(47.9308180398275,65.7970180907559,
-0.0125000000000526));
#590=DIRECTION('',(1.90552658587605E-15,-1.,2.74122250617259E-17));
#600=DIRECTION('',(1.,1.89407627514458E-15,5.55111512312578E-17));
#610=AXIS2_PLACEMENT_3D('',#580,#590,#600);
#620=CYLINDRICAL_SURFACE('',#610,1.62);
#630=CARTESIAN_POINT('',(46.3108180398275,65.7970180907559,
-0.0125000000000525));
#640=DIRECTION('',(1.90552658587605E-15,-1.,2.74122250617259E-17));
#650=VECTOR('',#640,1.);
#660=LINE('',#630,#650);
#670=CARTESIAN_POINT('',(46.3108180398275,70.4970180907559,
-0.0125000000000526));
#680=VERTEX_POINT('',#670);
#690=CARTESIAN_POINT('',(46.3108180398275,67.1970180907559,
-0.0125000000000525));
#700=VERTEX_POINT('',#690);
#710=EDGE_CURVE('',#680,#700,#660,.T.);
#720=ORIENTED_EDGE('',*,*,#710,.T.);
#730=CARTESIAN_POINT('',(47.9308180398275,70.4970180907559,
-0.0125000000000526));
#740=DIRECTION('',(1.90552658587605E-15,-1.,2.74122250617259E-17));
#750=DIRECTION('',(1.,1.89407627514458E-15,5.55111512312578E-17));
#760=AXIS2_PLACEMENT_3D('',#730,#740,#750);
#770=CIRCLE('',#760,1.62);
#780=CARTESIAN_POINT('',(49.5508180398275,70.4970180907559,
-0.0125000000000526));
#790=VERTEX_POINT('',#780);
#800=EDGE_CURVE('',#680,#790,#770,.T.);
#810=ORIENTED_EDGE('',*,*,#800,.F.);
#820=CARTESIAN_POINT('',(49.5508180398275,65.7970180907559,
-0.0125000000000525));
#830=DIRECTION('',(1.90552658587605E-15,-1.,2.74122250617259E-17));
#840=VECTOR('',#830,1.);
#850=LINE('',#820,#840);
#860=CARTESIAN_POINT('',(49.5508180398275,67.1970180907559,
-0.0125000000000525));
#870=VERTEX_POINT('',#860);
#880=EDGE_CURVE('',#790,#870,#850,.T.);
#890=ORIENTED_EDGE('',*,*,#880,.F.);
#900=CARTESIAN_POINT('',(47.9308180398275,67.1970180907559,
-0.0125000000000526));
#910=DIRECTION('',(1.90552658587605E-15,-1.,2.74122250617259E-17));
#920=DIRECTION('',(1.,1.89407627514458E-15,5.55111512312578E-17));
#930=AXIS2_PLACEMENT_3D('',#900,#910,#920);
#940=CIRCLE('',#930,1.62);
#950=EDGE_CURVE('',#700,#870,#940,.T.);
#960=ORIENTED_EDGE('',*,*,#950,.T.);
#970=EDGE_LOOP('',(#960,#890,#810,#720));
#980=FACE_OUTER_BOUND('',#970,.T.);
#990=ADVANCED_FACE('',(#980),#620,.F.);
#1000=COLOUR_RGB('',0.,0.443137288093567,0.709803938865662);
#1010=FILL_AREA_STYLE_COLOUR('',#1000);
#1020=FILL_AREA_STYLE('',(#1010));
#1030=SURFACE_STYLE_FILL_AREA(#1020);
#1040=SURFACE_SIDE_STYLE('',(#1030));
#1050=SURFACE_STYLE_USAGE(.BOTH.,#1040);
#1060=PRESENTATION_STYLE_ASSIGNMENT((#1050));
#1070=CARTESIAN_POINT('',(47.341228622368,70.4970180907559,
-0.788494539892085));
#1080=DIRECTION('',(1.89407627514458E-15,-1.,2.0816681711718E-17));
#1090=DIRECTION('',(1.,1.89407627514458E-15,5.55111512312578E-17));
#1100=AXIS2_PLACEMENT_3D('',#1070,#1080,#1090);
#1110=PLANE('',#1100);
#1120=CARTESIAN_POINT('',(47.9308180398275,70.4970180907559,
-0.0125000000000526));
#1130=DIRECTION('',(1.90552658587605E-15,-1.,2.74122250617259E-17));
#1140=DIRECTION('',(1.,1.89407627514458E-15,5.55111512312578E-17));
#1150=AXIS2_PLACEMENT_3D('',#1120,#1130,#1140);
#1160=CIRCLE('',#1150,1.5375);
#1170=CARTESIAN_POINT('',(49.4683180398275,70.4970180907559,
-0.0125000000000589));
#1180=VERTEX_POINT('',#1170);
#1190=CARTESIAN_POINT('',(46.3933180398275,70.4970180907559,
-0.0125000000000589));
#1200=VERTEX_POINT('',#1190);
#1210=EDGE_CURVE('',#1180,#1200,#1160,.T.);
#1220=ORIENTED_EDGE('',*,*,#1210,.F.);
#1230=EDGE_CURVE('',#1200,#1180,#1160,.T.);
#1240=ORIENTED_EDGE('',*,*,#1230,.F.);
#1250=EDGE_LOOP('',(#1240,#1220));
#1260=FACE_BOUND('',#1250,.T.);
#1270=EDGE_CURVE('',#790,#680,#770,.T.);
#1280=ORIENTED_EDGE('',*,*,#1270,.T.);
#1290=ORIENTED_EDGE('',*,*,#800,.T.);
#1300=EDGE_LOOP('',(#1290,#1280));
#1310=FACE_OUTER_BOUND('',#1300,.T.);
#1320=ADVANCED_FACE('',(#1260,#1310),#1110,.T.);
#1330=COLOUR_RGB('',0.,0.443137288093567,0.709803938865662);
#1340=FILL_AREA_STYLE_COLOUR('',#1330);
#1350=FILL_AREA_STYLE('',(#1340));
#1360=SURFACE_STYLE_FILL_AREA(#1350);
#1370=SURFACE_SIDE_STYLE('',(#1360));
#1380=SURFACE_STYLE_USAGE(.BOTH.,#1370);
#1390=PRESENTATION_STYLE_ASSIGNMENT((#1380));
#1400=CARTESIAN_POINT('',(47.9308180398275,96.0470204907559,
-0.0125000000000597));
#1410=DIRECTION('',(1.90552658587605E-15,-1.,2.74122250617259E-17));
#1420=DIRECTION('',(1.,1.89407627514458E-15,5.55111512312578E-17));
#1430=AXIS2_PLACEMENT_3D('',#1400,#1410,#1420);
#1440=CYLINDRICAL_SURFACE('',#1430,1.5375);
#1450=CARTESIAN_POINT('',(49.4683180398275,96.0470204907559,
-0.0125000000000596));
#1460=DIRECTION('',(1.90552658587605E-15,-1.,2.74122250617259E-17));
#1470=VECTOR('',#1460,1.);
#1480=LINE('',#1450,#1470);
#1490=CARTESIAN_POINT('',(49.4683180398275,93.2970180907559,
-0.0125000000000595));
#1500=VERTEX_POINT('',#1490);
#1510=EDGE_CURVE('',#1500,#1180,#1480,.T.);
#1520=ORIENTED_EDGE('',*,*,#1510,.F.);
#1530=ORIENTED_EDGE('',*,*,#1230,.T.);
#1540=CARTESIAN_POINT('',(46.3933180398275,96.0470204907559,
-0.0125000000000596));
#1550=DIRECTION('',(1.90552658587605E-15,-1.,2.74122250617259E-17));
#1560=VECTOR('',#1550,1.);
#1570=LINE('',#1540,#1560);
#1580=CARTESIAN_POINT('',(46.3933180398275,93.2970180907559,
-0.0125000000000595));
#1590=VERTEX_POINT('',#1580);
#1600=EDGE_CURVE('',#1590,#1200,#1570,.T.);
#1610=ORIENTED_EDGE('',*,*,#1600,.T.);
#1620=CARTESIAN_POINT('',(47.9308180398275,93.2970180907559,
-0.0125000000000526));
#1630=DIRECTION('',(1.90552658587605E-15,-1.,2.74122250617259E-17));
#1640=DIRECTION('',(1.,1.88019848733677E-15,-5.55111512312578E-17));
#1650=AXIS2_PLACEMENT_3D('',#1620,#1630,#1640);
#1660=CIRCLE('',#1650,1.5375);
#1670=EDGE_CURVE('',#1590,#1500,#1660,.T.);
#1680=ORIENTED_EDGE('',*,*,#1670,.F.);
#1690=EDGE_LOOP('',(#1680,#1610,#1530,#1520));
#1700=FACE_OUTER_BOUND('',#1690,.T.);
#1710=ADVANCED_FACE('',(#1700),#1440,.F.);
#1720=COLOUR_RGB('',0.,0.443137288093567,0.709803938865662);
#1730=FILL_AREA_STYLE_COLOUR('',#1720);
#1740=FILL_AREA_STYLE('',(#1730));
#1750=SURFACE_STYLE_FILL_AREA(#1740);
#1760=SURFACE_SIDE_STYLE('',(#1750));
#1770=SURFACE_STYLE_USAGE(.BOTH.,#1760);
#1780=PRESENTATION_STYLE_ASSIGNMENT((#1770));
#1790=CARTESIAN_POINT('',(47.9308180398275,65.7970180907559,
-0.0125000000000526));
#1800=DIRECTION('',(1.89220969161261E-15,-1.,4.11349932959262E-17));
#1810=DIRECTION('',(0.99144486137381,1.88788969545494E-15,
-0.130526192220052));
#1820=AXIS2_PLACEMENT_3D('',#1790,#1800,#1810);
#1830=CONICAL_SURFACE('',#1820,2.5125,0.00727259905240371);
#1840=CARTESIAN_POINT('',(45.4398128256258,65.7970180907559,
0.315447057952827));
#1850=DIRECTION('',(-0.00721031739915816,-0.999973554768071,
0.000949256293997319));
#1860=VECTOR('',#1850,345.477886242828);
#1870=LINE('',#1840,#1860);
#1880=CARTESIAN_POINT('',(45.6381017979005,93.2970180907559,
0.289341819508816));
#1890=VERTEX_POINT('',#1880);
#1900=CARTESIAN_POINT('',(45.4398128256258,65.7970180907559,
0.315447057952827));
#1910=VERTEX_POINT('',#1900);
#1920=EDGE_CURVE('',#1890,#1910,#1870,.T.);
#1930=ORIENTED_EDGE('',*,*,#1920,.F.);
#1940=CARTESIAN_POINT('',(47.9308180398275,65.7970180907559,
-0.0125000000000526));
#1950=DIRECTION('',(1.90552658587605E-15,-1.,2.74122250617259E-17));
#1960=DIRECTION('',(0.99144486137381,1.86737977903527E-15,
0.130526192220052));
#1970=AXIS2_PLACEMENT_3D('',#1940,#1950,#1960);
#1980=CIRCLE('',#1970,2.5125);
#1990=CARTESIAN_POINT('',(47.387013509808,65.7970180907559,
-2.46544371788889));
#2000=VERTEX_POINT('',#1990);
#2010=EDGE_CURVE('',#1910,#2000,#1980,.T.);
#2020=ORIENTED_EDGE('',*,*,#2010,.F.);
#2030=CARTESIAN_POINT('',(50.4218232540292,65.7970180907559,
-0.340447057952933));
#2040=VERTEX_POINT('',#2030);
#2050=EDGE_CURVE('',#2000,#2040,#1980,.T.);
#2060=ORIENTED_EDGE('',*,*,#2050,.F.);
#2070=CARTESIAN_POINT('',(50.4218232540292,65.7970180907559,
-0.340447057952933));
#2080=DIRECTION('',(0.00721031739916194,-0.999973554768071,
-0.000949256293997237));
#2090=VECTOR('',#2080,345.477886242828);
#2100=LINE('',#2070,#2090);
#2110=CARTESIAN_POINT('',(50.2235342817544,93.2970180907559,
-0.314341819508924));
#2120=VERTEX_POINT('',#2110);
#2130=EDGE_CURVE('',#2120,#2040,#2100,.T.);
#2140=ORIENTED_EDGE('',*,*,#2130,.T.);
#2150=CARTESIAN_POINT('',(47.9308180398275,93.2970180907559,
-0.0125000000000535));
#2160=DIRECTION('',(1.90552658587605E-15,-1.,2.74122250617259E-17));
#2170=DIRECTION('',(0.608761429008719,1.18175866774954E-15,
0.793353340291237));
#2180=AXIS2_PLACEMENT_3D('',#2150,#2160,#2170);
#2190=CIRCLE('',#2180,2.31249999999999);
#2200=CARTESIAN_POINT('',(50.2220732050263,93.297018090756,
-0.325239536915135));
#2210=VERTEX_POINT('',#2200);
#2220=EDGE_CURVE('',#2210,#2120,#2190,.T.);
#2230=ORIENTED_EDGE('',*,*,#2220,.T.);
#2240=EDGE_CURVE('',#1890,#2210,#2190,.T.);
#2250=ORIENTED_EDGE('',*,*,#2240,.T.);
#2260=EDGE_LOOP('',(#2250,#2230,#2140,#2060,#2020,#1930));
#2270=FACE_OUTER_BOUND('',#2260,.T.);
#2280=ADVANCED_FACE('',(#2270),#1830,.T.);
#2290=COLOUR_RGB('',0.,0.443137288093567,0.709803938865662);
#2300=FILL_AREA_STYLE_COLOUR('',#2290);
#2310=FILL_AREA_STYLE('',(#2300));
#2320=SURFACE_STYLE_FILL_AREA(#2310);
#2330=SURFACE_SIDE_STYLE('',(#2320));
#2340=SURFACE_STYLE_USAGE(.BOTH.,#2330);
#2350=PRESENTATION_STYLE_ASSIGNMENT((#2340));
#2360=CARTESIAN_POINT('',(48.9990537492936,93.2970180907559,
-0.454977718672183));
#2370=DIRECTION('',(-1.89087824306394E-15,1.,-2.55557704473085E-17));
#2380=DIRECTION('',(0.923879532511287,1.73716393728616E-15,
-0.38268343236509));
#2390=AXIS2_PLACEMENT_3D('',#2360,#2370,#2380);
#2400=PLANE('',#2390);
#2410=EDGE_CURVE('',#1500,#1590,#1660,.T.);
#2420=ORIENTED_EDGE('',*,*,#2410,.T.);
#2430=ORIENTED_EDGE('',*,*,#1670,.T.);
#2440=EDGE_LOOP('',(#2430,#2420));
#2450=FACE_BOUND('',#2440,.T.);
#2460=ORIENTED_EDGE('',*,*,#2220,.F.);
#2470=EDGE_CURVE('',#2120,#1890,#2190,.T.);
#2480=ORIENTED_EDGE('',*,*,#2470,.F.);
#2490=ORIENTED_EDGE('',*,*,#2240,.F.);
#2500=EDGE_LOOP('',(#2490,#2480,#2460));
#2510=FACE_OUTER_BOUND('',#2500,.T.);
#2520=ADVANCED_FACE('',(#2450,#2510),#2400,.T.);
#2530=COLOUR_RGB('',0.,0.443137288093567,0.709803938865662);
#2540=FILL_AREA_STYLE_COLOUR('',#2530);
#2550=FILL_AREA_STYLE('',(#2540));
#2560=SURFACE_STYLE_FILL_AREA(#2550);
#2570=SURFACE_SIDE_STYLE('',(#2560));
#2580=SURFACE_STYLE_USAGE(.BOTH.,#2570);
#2590=PRESENTATION_STYLE_ASSIGNMENT((#2580));
#2600=CARTESIAN_POINT('',(48.9274681735684,65.7970180907559,
-0.777256545192266));
#2610=DIRECTION('',(-1.90237359950967E-15,1.,-2.51938482398076E-17));
#2620=DIRECTION('',(-0.793353340291235,-1.49391740659616E-15,
0.608761429008721));
#2630=AXIS2_PLACEMENT_3D('',#2600,#2610,#2620);
#2640=PLANE('',#2630);
#2650=ORIENTED_EDGE('',*,*,#320,.F.);
#2660=EDGE_CURVE('',#220,#350,#290,.T.);
#2670=ORIENTED_EDGE('',*,*,#2660,.F.);
#2680=ORIENTED_EDGE('',*,*,#360,.F.);
#2690=EDGE_LOOP('',(#2680,#2670,#2650));
#2700=FACE_BOUND('',#2690,.T.);
#2710=EDGE_CURVE('',#2040,#1910,#1980,.T.);
#2720=ORIENTED_EDGE('',*,*,#2710,.T.);
#2730=ORIENTED_EDGE('',*,*,#2050,.T.);
#2740=ORIENTED_EDGE('',*,*,#2010,.T.);
#2750=EDGE_LOOP('',(#2740,#2730,#2720));
#2760=FACE_OUTER_BOUND('',#2750,.T.);
#2770=ADVANCED_FACE('',(#2700,#2760),#2640,.F.);
#2780=COLOUR_RGB('',0.,0.443137288093567,0.709803938865662);
#2790=FILL_AREA_STYLE_COLOUR('',#2780);
#2800=FILL_AREA_STYLE('',(#2790));
#2810=SURFACE_STYLE_FILL_AREA(#2800);
#2820=SURFACE_SIDE_STYLE('',(#2810));
#2830=SURFACE_STYLE_USAGE(.BOTH.,#2820);
#2840=PRESENTATION_STYLE_ASSIGNMENT((#2830));
#2850=CARTESIAN_POINT('',(47.341228622368,67.1970180907559,
-0.788494539892085));
#2860=DIRECTION('',(1.89407627514458E-15,-1.,2.0816681711718E-17));
#2870=DIRECTION('',(1.,1.89407627514458E-15,5.55111512312578E-17));
#2880=AXIS2_PLACEMENT_3D('',#2850,#2860,#2870);
#2890=PLANE('',#2880);
#2900=EDGE_CURVE('',#870,#700,#940,.T.);
#2910=ORIENTED_EDGE('',*,*,#2900,.F.);
#2920=ORIENTED_EDGE('',*,*,#950,.F.);
#2930=EDGE_LOOP('',(#2920,#2910));
#2940=FACE_BOUND('',#2930,.T.);
#2950=EDGE_CURVE('',#140,#430,#100,.T.);
#2960=ORIENTED_EDGE('',*,*,#2950,.T.);
#2970=ORIENTED_EDGE('',*,*,#150,.T.);
#2980=ORIENTED_EDGE('',*,*,#460,.T.);
#2990=EDGE_LOOP('',(#2980,#2970,#2960));
#3000=FACE_OUTER_BOUND('',#2990,.T.);
#3010=ADVANCED_FACE('',(#2940,#3000),#2890,.T.);
#3020=COLOUR_RGB('',0.,0.443137288093567,0.709803938865662);
#3030=FILL_AREA_STYLE_COLOUR('',#3020);
#3040=FILL_AREA_STYLE('',(#3030));
#3050=SURFACE_STYLE_FILL_AREA(#3040);
#3060=SURFACE_SIDE_STYLE('',(#3050));
#3070=SURFACE_STYLE_USAGE(.BOTH.,#3060);
#3080=PRESENTATION_STYLE_ASSIGNMENT((#3070));
#3090=CARTESIAN_POINT('',(47.9308180398275,96.0470204907559,
-0.0125000000000597));
#3100=DIRECTION('',(1.90552658587605E-15,-1.,2.74122250617259E-17));
#3110=DIRECTION('',(1.,1.89407627514458E-15,5.55111512312578E-17));
#3120=AXIS2_PLACEMENT_3D('',#3090,#3100,#3110);
#3130=CYLINDRICAL_SURFACE('',#3120,1.5375);
#3140=ORIENTED_EDGE('',*,*,#2410,.F.);
#3150=ORIENTED_EDGE('',*,*,#1600,.F.);
#3160=ORIENTED_EDGE('',*,*,#1210,.T.);
#3170=ORIENTED_EDGE('',*,*,#1510,.T.);
#3180=EDGE_LOOP('',(#3170,#3160,#3150,#3140));
#3190=FACE_OUTER_BOUND('',#3180,.T.);
#3200=ADVANCED_FACE('',(#3190),#3130,.F.);
#3210=COLOUR_RGB('',0.,0.443137288093567,0.709803938865662);
#3220=FILL_AREA_STYLE_COLOUR('',#3210);
#3230=FILL_AREA_STYLE('',(#3220));
#3240=SURFACE_STYLE_FILL_AREA(#3230);
#3250=SURFACE_SIDE_STYLE('',(#3240));
#3260=SURFACE_STYLE_USAGE(.BOTH.,#3250);
#3270=PRESENTATION_STYLE_ASSIGNMENT((#3260));
#3280=CARTESIAN_POINT('',(47.9308180398275,65.7970180907559,
-0.0125000000000526));
#3290=DIRECTION('',(1.90552658587605E-15,-1.,2.74122250617259E-17));
#3300=DIRECTION('',(1.,1.89407627514458E-15,5.55111512312578E-17));
#3310=AXIS2_PLACEMENT_3D('',#3280,#3290,#3300);
#3320=CYLINDRICAL_SURFACE('',#3310,1.62);
#3330=ORIENTED_EDGE('',*,*,#1270,.F.);
#3340=ORIENTED_EDGE('',*,*,#710,.F.);
#3350=ORIENTED_EDGE('',*,*,#2900,.T.);
#3360=ORIENTED_EDGE('',*,*,#880,.T.);
#3370=EDGE_LOOP('',(#3360,#3350,#3340,#3330));
#3380=FACE_OUTER_BOUND('',#3370,.T.);
#3390=ADVANCED_FACE('',(#3380),#3320,.F.);
#3400=COLOUR_RGB('',0.,0.443137288093567,0.709803938865662);
#3410=FILL_AREA_STYLE_COLOUR('',#3400);
#3420=FILL_AREA_STYLE('',(#3410));
#3430=SURFACE_STYLE_FILL_AREA(#3420);
#3440=SURFACE_SIDE_STYLE('',(#3430));
#3450=SURFACE_STYLE_USAGE(.BOTH.,#3440);
#3460=PRESENTATION_STYLE_ASSIGNMENT((#3450));
#3470=CARTESIAN_POINT('',(47.9308180398275,65.7970180907559,
-0.0125000000000526));
#3480=DIRECTION('',(1.89220969161261E-15,-1.,4.11349932959262E-17));
#3490=DIRECTION('',(0.99144486137381,1.88788969545494E-15,
-0.130526192220052));
#3500=AXIS2_PLACEMENT_3D('',#3470,#3480,#3490);
#3510=CONICAL_SURFACE('',#3500,2.5125,0.00727259905240371);
#3520=ORIENTED_EDGE('',*,*,#2710,.F.);
#3530=ORIENTED_EDGE('',*,*,#1920,.T.);
#3540=ORIENTED_EDGE('',*,*,#2470,.T.);
#3550=ORIENTED_EDGE('',*,*,#2130,.F.);
#3560=EDGE_LOOP('',(#3550,#3540,#3530,#3520));
#3570=FACE_OUTER_BOUND('',#3560,.T.);
#3580=ADVANCED_FACE('',(#3570),#3510,.T.);
#3590=COLOUR_RGB('',0.,0.443137288093567,0.709803938865662);
#3600=FILL_AREA_STYLE_COLOUR('',#3590);
#3610=FILL_AREA_STYLE('',(#3600));
#3620=SURFACE_STYLE_FILL_AREA(#3610);
#3630=SURFACE_SIDE_STYLE('',(#3620));
#3640=SURFACE_STYLE_USAGE(.BOTH.,#3630);
#3650=PRESENTATION_STYLE_ASSIGNMENT((#3640));
#3660=CARTESIAN_POINT('',(47.9308180398275,65.7970180907559,
-0.0125000000000455));
#3670=DIRECTION('',(1.90552658587605E-15,-1.,2.74122250617256E-17));
#3680=DIRECTION('',(1.,1.89407627514458E-15,5.55111512312578E-17));
#3690=AXIS2_PLACEMENT_3D('',#3660,#3670,#3680);
#3700=CYLINDRICAL_SURFACE('',#3690,2.0875);
#3710=ORIENTED_EDGE('',*,*,#2950,.F.);
#3720=ORIENTED_EDGE('',*,*,#440,.F.);
#3730=ORIENTED_EDGE('',*,*,#2660,.T.);
#3740=ORIENTED_EDGE('',*,*,#230,.T.);
#3750=EDGE_LOOP('',(#3740,#3730,#3720,#3710));
#3760=FACE_OUTER_BOUND('',#3750,.T.);
#3770=ADVANCED_FACE('',(#3760),#3700,.F.);
#3780=COLOUR_RGB('',0.,0.443137288093567,0.709803938865662);
#3790=FILL_AREA_STYLE_COLOUR('',#3780);
#3800=FILL_AREA_STYLE('',(#3790));
#3810=SURFACE_STYLE_FILL_AREA(#3800);
#3820=SURFACE_SIDE_STYLE('',(#3810));
#3830=SURFACE_STYLE_USAGE(.BOTH.,#3820);
#3840=PRESENTATION_STYLE_ASSIGNMENT((#3830));
#3850=CLOSED_SHELL('',(#500,#990,#1320,#1710,#2280,#2520,#2770,#3010,
#3200,#3390,#3580,#3770));
#3860=MANIFOLD_SOLID_BREP('',#3850);
#3870=CARTESIAN_POINT('',(0.,0.,0.));
#3880=DIRECTION('',(0.,0.,1.));
#3890=DIRECTION('',(1.,0.,0.));
#3900=AXIS2_PLACEMENT_3D('',#3870,#3880,#3890);
#3910=APPLICATION_CONTEXT(' ');
#3920=APPLICATION_PROTOCOL_DEFINITION(' ','automotive_design',1998,#3910
);
#3930=PRODUCT_CONTEXT('',#3910,'mechanical');
#3940=PRODUCT_DEFINITION_CONTEXT('part definition',#3910,'design');
#3950=PRODUCT('MPS-IH-BU-select','MPS-IH-BU-select','',(#3930));
#3960=PRODUCT_RELATED_PRODUCT_CATEGORY('part',' ',(#3950));
#3970=PRODUCT_DEFINITION_FORMATION_WITH_SPECIFIED_SOURCE('','',#3950,
.BOUGHT.);
#3980=PRODUCT_DEFINITION('',' ',#3970,#3940);
#3990=PRODUCT_DEFINITION_SHAPE('','',#3980);
#4000=DIMENSIONAL_EXPONENTS(1.,0.,0.,0.,0.,0.,0.);
#4010=DIMENSIONAL_EXPONENTS(0.,0.,0.,0.,0.,0.,0.);
#4020=DIMENSIONAL_EXPONENTS(0.,0.,0.,0.,0.,0.,0.);
#4030=(LENGTH_UNIT() NAMED_UNIT(*) SI_UNIT(.MILLI.,.METRE.));
#4040=(NAMED_UNIT(*) PLANE_ANGLE_UNIT() SI_UNIT($,.RADIAN.));
#4050=(NAMED_UNIT(*) SI_UNIT($,.STERADIAN.) SOLID_ANGLE_UNIT());
#4060=(GEOMETRIC_REPRESENTATION_CONTEXT(3) 
GLOBAL_UNCERTAINTY_ASSIGNED_CONTEXT((#4070)) 
GLOBAL_UNIT_ASSIGNED_CONTEXT((#4030,#4040,#4050)) REPRESENTATION_CONTEXT
('',''));
#4070=UNCERTAINTY_MEASURE_WITH_UNIT(LENGTH_MEASURE(1.E-6),#4030,
'distance_accuracy_value','maximum gap value');
#4080=ADVANCED_BREP_SHAPE_REPRESENTATION('',(#3900,#3860),#4060);
#4090=SHAPE_DEFINITION_REPRESENTATION(#3990,#4080);
#4100=COLOUR_RGB('',0.,0.443137288093567,0.709803938865662);
#4110=FILL_AREA_STYLE_COLOUR('',#4100);
#4120=FILL_AREA_STYLE('',(#4110));
#4130=SURFACE_STYLE_FILL_AREA(#4120);
#4140=SURFACE_SIDE_STYLE('',(#4130));
#4150=SURFACE_STYLE_USAGE(.BOTH.,#4140);
#4160=PRESENTATION_STYLE_ASSIGNMENT((#4150));
#4170=STYLED_ITEM('',(#4160),#3860);
#4180=OVER_RIDING_STYLED_ITEM('',(#570),#500,#4170);
#4190=OVER_RIDING_STYLED_ITEM('',(#1060),#990,#4170);
#4200=OVER_RIDING_STYLED_ITEM('',(#1390),#1320,#4170);
#4210=OVER_RIDING_STYLED_ITEM('',(#1780),#1710,#4170);
#4220=OVER_RIDING_STYLED_ITEM('',(#2350),#2280,#4170);
#4230=OVER_RIDING_STYLED_ITEM('',(#2590),#2520,#4170);
#4240=OVER_RIDING_STYLED_ITEM('',(#2840),#2770,#4170);
#4250=OVER_RIDING_STYLED_ITEM('',(#3080),#3010,#4170);
#4260=OVER_RIDING_STYLED_ITEM('',(#3270),#3200,#4170);
#4270=OVER_RIDING_STYLED_ITEM('',(#3460),#3390,#4170);
#4280=OVER_RIDING_STYLED_ITEM('',(#3650),#3580,#4170);
#4290=OVER_RIDING_STYLED_ITEM('',(#3840),#3770,#4170);
#4300=DRAUGHTING_MODEL('',(#4170,#4180,#4190,#4200,#4210,#4220,#4230,
#4240,#4250,#4260,#4270,#4280,#4290),#4060);
#4310=CARTESIAN_POINT('',(-45.4183180398276,2.50000000000002,
-65.7970180907561));
#4320=DIRECTION('',(-1.86632069952896E-15,-1.,3.48315295349025E-30));
#4330=DIRECTION('',(1.,-1.86632069952896E-15,-1.86632069952896E-15));
#4340=AXIS2_PLACEMENT_3D('',#4310,#4320,#4330);
#4350=ITEM_DEFINED_TRANSFORMATION('MPS-IH-BU-select','',#3900,#4340);
#4360=APPLICATION_CONTEXT(' ');
#4370=APPLICATION_PROTOCOL_DEFINITION(' ','automotive_design',1998,#4360
);
#4380=PRODUCT_CONTEXT('',#4360,'mechanical');
#4390=PRODUCT_DEFINITION_CONTEXT('part definition',#4360,'design');
#4400=PRODUCT('MPS-IH-BU-select','MPS-IH-BU-select','',(#4380));
#4410=PRODUCT_RELATED_PRODUCT_CATEGORY('part',' ',(#4400));
#4420=PRODUCT_DEFINITION_FORMATION_WITH_SPECIFIED_SOURCE('','',#4400,
.BOUGHT.);
#4430=PRODUCT_DEFINITION('',' ',#4420,#4390);
#4440=PRODUCT_DEFINITION_SHAPE('','',#4430);
#4450=DIMENSIONAL_EXPONENTS(1.,0.,0.,0.,0.,0.,0.);
#4460=DIMENSIONAL_EXPONENTS(0.,0.,0.,0.,0.,0.,0.);
#4470=DIMENSIONAL_EXPONENTS(0.,0.,0.,0.,0.,0.,0.);
#4480=(LENGTH_UNIT() NAMED_UNIT(*) SI_UNIT(.MILLI.,.METRE.));
#4490=(NAMED_UNIT(*) PLANE_ANGLE_UNIT() SI_UNIT($,.RADIAN.));
#4500=(NAMED_UNIT(*) SI_UNIT($,.STERADIAN.) SOLID_ANGLE_UNIT());
#4510=(GEOMETRIC_REPRESENTATION_CONTEXT(3) 
GLOBAL_UNCERTAINTY_ASSIGNED_CONTEXT((#4520)) 
GLOBAL_UNIT_ASSIGNED_CONTEXT((#4480,#4490,#4500)) REPRESENTATION_CONTEXT
('',''));
#4520=UNCERTAINTY_MEASURE_WITH_UNIT(LENGTH_MEASURE(1.E-6),#4480,
'distance_accuracy_value','maximum gap value');
#4530=SHAPE_REPRESENTATION('',(#3900,#4340),#4510);
#4540=SHAPE_DEFINITION_REPRESENTATION(#4440,#4530);
#4550=(REPRESENTATION_RELATIONSHIP('','',#4080,#4530) 
REPRESENTATION_RELATIONSHIP_WITH_TRANSFORMATION(#4350) 
SHAPE_REPRESENTATION_RELATIONSHIP());
#4560=NEXT_ASSEMBLY_USAGE_OCCURRENCE('1','','MPS-IH-BU-select',#4430,
#3980,'');
#4570=PRODUCT_DEFINITION_SHAPE('','',#4560);
#4580=CONTEXT_DEPENDENT_SHAPE_REPRESENTATION(#4550,#4570);
ENDSEC;
END-ISO-10303-21;
