ISO-10303-21;
HEADER;
FILE_DESCRIPTION(('Creo Elements/Direct Modeling STEP Export'),'2;1');
FILE_NAME(
'C:/temp/JobSpoolerServerData/JobServer Files/ac9fcae6-2fc3-4b3e-b745-db
a3801e3e7b/work/output/model.stp','2020-02-12T14:32:41',(''),(''),
'Creo Elements/Direct Modeling STEP processor for AP214 (Solid Model)',
'Creo Elements/Direct Modeling 20.1A  29-Sep-2018 (C) Parametric Technol
ogy GmbH','');
FILE_SCHEMA(('AUTOMOTIVE_DESIGN { 1 0 10303 214 1 1 1 1 }'));
ENDSEC;
DATA;
#10=CARTESIAN_POINT('',(47.9183180398275,65.7970180907559,
7.105427357601E-15));
#20=DIRECTION('',(1.91052250483214E-31,-1.,2.74122250617291E-17));
#30=DIRECTION('',(1.,-1.14503107314641E-17,1.88737914186277E-15));
#40=AXIS2_PLACEMENT_3D('',#10,#20,#30);
#50=CYLINDRICAL_SURFACE('',#40,2.0875);
#60=CARTESIAN_POINT('',(47.9183180398275,67.1970180907559,0.));
#70=DIRECTION('',(-2.46519032881566E-32,-1.,2.74122250617295E-17));
#80=DIRECTION('',(1.,-1.14503107314641E-17,1.88737914186277E-15));
#90=AXIS2_PLACEMENT_3D('',#60,#70,#80);
#100=CIRCLE('',#90,2.0875);
#110=CARTESIAN_POINT('',(46.1654707337581,67.1970180907559,
-1.13365893089824));
#120=VERTEX_POINT('',#110);
#130=CARTESIAN_POINT('',(50.0058180398275,67.1970180907559,
1.10069542011531E-14));
#140=VERTEX_POINT('',#130);
#150=EDGE_CURVE('',#120,#140,#100,.T.);
#160=ORIENTED_EDGE('',*,*,#150,.F.);
#170=CARTESIAN_POINT('',(50.0058180398275,65.7970180907559,
1.10453313162395E-14));
#180=DIRECTION('',(1.91052250483214E-31,-1.,2.74122250617291E-17));
#190=VECTOR('',#180,1.);
#200=LINE('',#170,#190);
#210=CARTESIAN_POINT('',(50.0058180398275,65.7970180907559,
1.10453313162395E-14));
#220=VERTEX_POINT('',#210);
#230=EDGE_CURVE('',#140,#220,#200,.T.);
#240=ORIENTED_EDGE('',*,*,#230,.F.);
#250=CARTESIAN_POINT('',(47.9183180398275,65.7970180907559,0.));
#260=DIRECTION('',(-2.46519032881566E-32,-1.,2.74122250617295E-17));
#270=DIRECTION('',(1.,-1.14503107314641E-17,1.88737914186277E-15));
#280=AXIS2_PLACEMENT_3D('',#250,#260,#270);
#290=CIRCLE('',#280,2.0875);
#300=CARTESIAN_POINT('',(45.8308180398275,65.7970180907559,
3.42116841828449E-15));
#310=VERTEX_POINT('',#300);
#320=EDGE_CURVE('',#310,#220,#290,.T.);
#330=ORIENTED_EDGE('',*,*,#320,.T.);
#340=CARTESIAN_POINT('',(45.8308180398275,65.7970180907559,
3.42116841828449E-15));
#350=DIRECTION('',(1.91052250483214E-31,-1.,2.74122250617291E-17));
#360=VECTOR('',#350,1.);
#370=LINE('',#340,#360);
#380=CARTESIAN_POINT('',(45.8308180398275,67.1970180907559,
3.38279130319807E-15));
#390=VERTEX_POINT('',#380);
#400=EDGE_CURVE('',#390,#310,#370,.T.);
#410=ORIENTED_EDGE('',*,*,#400,.T.);
#420=EDGE_CURVE('',#390,#120,#100,.T.);
#430=ORIENTED_EDGE('',*,*,#420,.F.);
#440=EDGE_LOOP('',(#430,#410,#330,#240,#160));
#450=FACE_OUTER_BOUND('',#440,.T.);
#460=ADVANCED_FACE('',(#450),#50,.F.);
#470=COLOUR_RGB('',0.313725501298904,0.784313797950745,0.313725501298904
);
#480=FILL_AREA_STYLE_COLOUR('',#470);
#490=FILL_AREA_STYLE('',(#480));
#500=SURFACE_STYLE_FILL_AREA(#490);
#510=SURFACE_SIDE_STYLE('',(#500));
#520=SURFACE_STYLE_USAGE(.BOTH.,#510);
#530=PRESENTATION_STYLE_ASSIGNMENT((#520));
#540=CARTESIAN_POINT('',(47.9183180398275,96.0470204907559,
-7.105427357601E-15));
#550=DIRECTION('',(-2.46519032881566E-32,-1.,2.74122250617295E-17));
#560=DIRECTION('',(1.,-1.14503107314641E-17,1.88737914186277E-15));
#570=AXIS2_PLACEMENT_3D('',#540,#550,#560);
#580=CYLINDRICAL_SURFACE('',#570,1.5375);
#590=CARTESIAN_POINT('',(49.4558180398275,96.0470204907559,
-4.203581926987E-15));
#600=DIRECTION('',(-2.46519032881566E-32,-1.,2.74122250617294E-17));
#610=VECTOR('',#600,1.);
#620=LINE('',#590,#610);
#630=CARTESIAN_POINT('',(49.4558180398275,93.2970180907559,
-4.1281982422779E-15));
#640=VERTEX_POINT('',#630);
#650=CARTESIAN_POINT('',(49.4558180398275,70.4970180907559,
-3.50319951087047E-15));
#660=VERTEX_POINT('',#650);
#670=EDGE_CURVE('',#640,#660,#620,.T.);
#680=ORIENTED_EDGE('',*,*,#670,.F.);
#690=CARTESIAN_POINT('',(47.9183180398275,70.4970180907559,0.));
#700=DIRECTION('',(-2.46519032881566E-32,-1.,2.74122250617295E-17));
#710=DIRECTION('',(1.,-1.14503107314641E-17,1.88737914186277E-15));
#720=AXIS2_PLACEMENT_3D('',#690,#700,#710);
#730=CIRCLE('',#720,1.5375);
#740=CARTESIAN_POINT('',(46.3808180398275,70.4970180907559,
-9.11860092672957E-15));
#750=VERTEX_POINT('',#740);
#760=EDGE_CURVE('',#750,#660,#730,.T.);
#770=ORIENTED_EDGE('',*,*,#760,.T.);
#780=CARTESIAN_POINT('',(46.3808180398275,96.0470204907559,
-9.8189833428461E-15));
#790=DIRECTION('',(-2.46519032881566E-32,-1.,2.74122250617294E-17));
#800=VECTOR('',#790,1.);
#810=LINE('',#780,#800);
#820=CARTESIAN_POINT('',(46.3808180398275,93.2970180907559,
-9.743599658137E-15));
#830=VERTEX_POINT('',#820);
#840=EDGE_CURVE('',#830,#750,#810,.T.);
#850=ORIENTED_EDGE('',*,*,#840,.T.);
#860=CARTESIAN_POINT('',(47.9183180398275,93.2970180907559,0.));
#870=DIRECTION('',(-2.46519032881566E-32,-1.,2.74122250617295E-17));
#880=DIRECTION('',(1.,-2.53280985392786E-17,1.77635683940025E-15));
#890=AXIS2_PLACEMENT_3D('',#860,#870,#880);
#900=CIRCLE('',#890,1.5375);
#910=EDGE_CURVE('',#830,#640,#900,.T.);
#920=ORIENTED_EDGE('',*,*,#910,.F.);
#930=EDGE_LOOP('',(#920,#850,#770,#680));
#940=FACE_OUTER_BOUND('',#930,.T.);
#950=ADVANCED_FACE('',(#940),#580,.F.);
#960=COLOUR_RGB('',0.313725501298904,0.784313797950745,0.313725501298904
);
#970=FILL_AREA_STYLE_COLOUR('',#960);
#980=FILL_AREA_STYLE('',(#970));
#990=SURFACE_STYLE_FILL_AREA(#980);
#1000=SURFACE_SIDE_STYLE('',(#990));
#1010=SURFACE_STYLE_USAGE(.BOTH.,#1000);
#1020=PRESENTATION_STYLE_ASSIGNMENT((#1010));
#1030=CARTESIAN_POINT('',(48.9149681735684,65.7970180907559,
-0.764756545192206));
#1040=DIRECTION('',(3.15298636638278E-18,1.,-2.51938482398112E-17));
#1050=DIRECTION('',(-0.793353340291236,1.78384753223588E-17,
0.608761429008719));
#1060=AXIS2_PLACEMENT_3D('',#1030,#1040,#1050);
#1070=PLANE('',#1060);
#1080=CARTESIAN_POINT('',(45.8803001249646,65.7970180907559,
0.451817694095787));
#1090=VERTEX_POINT('',#1080);
#1100=EDGE_CURVE('',#1090,#310,#290,.T.);
#1110=ORIENTED_EDGE('',*,*,#1100,.F.);
#1120=ORIENTED_EDGE('',*,*,#320,.F.);
#1130=EDGE_CURVE('',#220,#1090,#290,.T.);
#1140=ORIENTED_EDGE('',*,*,#1130,.F.);
#1150=EDGE_LOOP('',(#1140,#1120,#1110));
#1160=FACE_BOUND('',#1150,.T.);
#1170=CARTESIAN_POINT('',(47.9183180398275,65.7970180907559,0.));
#1180=DIRECTION('',(-2.46519032881566E-32,-1.,2.74122250617295E-17));
#1190=DIRECTION('',(0.99144486137381,-2.18447627427156E-17,
0.130526192220054));
#1200=AXIS2_PLACEMENT_3D('',#1170,#1180,#1190);
#1210=CIRCLE('',#1200,2.5125);
#1220=CARTESIAN_POINT('',(45.4273128256258,65.7970180907559,
0.327947057952875));
#1230=VERTEX_POINT('',#1220);
#1240=CARTESIAN_POINT('',(50.4093232540292,65.7970180907559,
-0.327947057952876));
#1250=VERTEX_POINT('',#1240);
#1260=EDGE_CURVE('',#1230,#1250,#1210,.T.);
#1270=ORIENTED_EDGE('',*,*,#1260,.T.);
#1280=CARTESIAN_POINT('',(47.374513509808,65.7970180907559,
2.45294371788883));
#1290=VERTEX_POINT('',#1280);
#1300=EDGE_CURVE('',#1290,#1230,#1210,.T.);
#1310=ORIENTED_EDGE('',*,*,#1300,.T.);
#1320=EDGE_CURVE('',#1250,#1290,#1210,.T.);
#1330=ORIENTED_EDGE('',*,*,#1320,.T.);
#1340=EDGE_LOOP('',(#1330,#1310,#1270));
#1350=FACE_OUTER_BOUND('',#1340,.T.);
#1360=ADVANCED_FACE('',(#1160,#1350),#1070,.F.);
#1370=COLOUR_RGB('',0.313725501298904,0.784313797950745,
0.313725501298904);
#1380=FILL_AREA_STYLE_COLOUR('',#1370);
#1390=FILL_AREA_STYLE('',(#1380));
#1400=SURFACE_STYLE_FILL_AREA(#1390);
#1410=SURFACE_SIDE_STYLE('',(#1400));
#1420=SURFACE_STYLE_USAGE(.BOTH.,#1410);
#1430=PRESENTATION_STYLE_ASSIGNMENT((#1420));
#1440=CARTESIAN_POINT('',(47.328728622368,67.1970180907559,
-0.775994539892032));
#1450=DIRECTION('',(-1.14503107314642E-17,-1.,2.08166817117216E-17));
#1460=DIRECTION('',(1.,-1.14503107314641E-17,1.88737914186277E-15));
#1470=AXIS2_PLACEMENT_3D('',#1440,#1450,#1460);
#1480=PLANE('',#1470);
#1490=CARTESIAN_POINT('',(47.9183180398275,67.1970180907559,0.));
#1500=DIRECTION('',(-2.46519032881566E-32,-1.,2.74122250617295E-17));
#1510=DIRECTION('',(1.,-1.14503107314641E-17,1.88737914186277E-15));
#1520=AXIS2_PLACEMENT_3D('',#1490,#1500,#1510);
#1530=CIRCLE('',#1520,1.62);
#1540=CARTESIAN_POINT('',(49.5383180398275,67.1970180907559,
3.01917709473127E-15));
#1550=VERTEX_POINT('',#1540);
#1560=CARTESIAN_POINT('',(46.2983180398275,67.1970180907559,
-2.89753854344223E-15));
#1570=VERTEX_POINT('',#1560);
#1580=EDGE_CURVE('',#1550,#1570,#1530,.T.);
#1590=ORIENTED_EDGE('',*,*,#1580,.F.);
#1600=EDGE_CURVE('',#1570,#1550,#1530,.T.);
#1610=ORIENTED_EDGE('',*,*,#1600,.F.);
#1620=EDGE_LOOP('',(#1610,#1590));
#1630=FACE_BOUND('',#1620,.T.);
#1640=EDGE_CURVE('',#140,#390,#100,.T.);
#1650=ORIENTED_EDGE('',*,*,#1640,.T.);
#1660=ORIENTED_EDGE('',*,*,#150,.T.);
#1670=ORIENTED_EDGE('',*,*,#420,.T.);
#1680=EDGE_LOOP('',(#1670,#1660,#1650));
#1690=FACE_OUTER_BOUND('',#1680,.T.);
#1700=ADVANCED_FACE('',(#1630,#1690),#1480,.T.);
#1710=COLOUR_RGB('',0.313725501298904,0.784313797950745,
0.313725501298904);
#1720=FILL_AREA_STYLE_COLOUR('',#1710);
#1730=FILL_AREA_STYLE('',(#1720));
#1740=SURFACE_STYLE_FILL_AREA(#1730);
#1750=SURFACE_SIDE_STYLE('',(#1740));
#1760=SURFACE_STYLE_USAGE(.BOTH.,#1750);
#1770=PRESENTATION_STYLE_ASSIGNMENT((#1760));
#1780=CARTESIAN_POINT('',(47.9183180398275,65.7970180907559,0.));
#1790=DIRECTION('',(0.,-1.,4.11349932959262E-17));
#1800=DIRECTION('',(0.991444861373811,-1.33484632305421E-18,
-0.13052619222005));
#1810=AXIS2_PLACEMENT_3D('',#1780,#1790,#1800);
#1820=CONICAL_SURFACE('',#1810,2.5125,0.00727259905240371);
#1830=CARTESIAN_POINT('',(45.4273128256258,65.7970180907559,
0.327947057952875));
#1840=DIRECTION('',(-0.00721031739916005,-0.999973554768071,
0.000949256293997305));
#1850=VECTOR('',#1840,345.477886242828);
#1860=LINE('',#1830,#1850);
#1870=CARTESIAN_POINT('',(45.6256017979006,93.2970180907559,
0.301841819508864));
#1880=VERTEX_POINT('',#1870);
#1890=EDGE_CURVE('',#1880,#1230,#1860,.T.);
#1900=ORIENTED_EDGE('',*,*,#1890,.F.);
#1910=ORIENTED_EDGE('',*,*,#1260,.F.);
#1920=CARTESIAN_POINT('',(50.4093232540292,65.7970180907559,
-0.327947057952876));
#1930=DIRECTION('',(0.00721031739916005,-0.999973554768071,
-0.000949256293997225));
#1940=VECTOR('',#1930,345.477886242828);
#1950=LINE('',#1920,#1940);
#1960=CARTESIAN_POINT('',(50.2110342817544,93.2970180907559,
-0.301841819508867));
#1970=VERTEX_POINT('',#1960);
#1980=EDGE_CURVE('',#1970,#1250,#1950,.T.);
#1990=ORIENTED_EDGE('',*,*,#1980,.T.);
#2000=CARTESIAN_POINT('',(47.9183180398275,93.2970180907559,
7.105427357601E-15));
#2010=DIRECTION('',(-1.54074395550979E-33,-1.,2.74122250617295E-17));
#2020=DIRECTION('',(0.60876142900872,2.17475803175382E-17,
0.793353340291235));
#2030=AXIS2_PLACEMENT_3D('',#2000,#2010,#2020);
#2040=CIRCLE('',#2030,2.31249999999999);
#2050=CARTESIAN_POINT('',(47.0435308409652,93.2970180907559,
-2.14065494807235));
#2060=VERTEX_POINT('',#2050);
#2070=EDGE_CURVE('',#2060,#1970,#2040,.T.);
#2080=ORIENTED_EDGE('',*,*,#2070,.T.);
#2090=EDGE_CURVE('',#1880,#2060,#2040,.T.);
#2100=ORIENTED_EDGE('',*,*,#2090,.T.);
#2110=EDGE_LOOP('',(#2100,#2080,#1990,#1910,#1900));
#2120=FACE_OUTER_BOUND('',#2110,.T.);
#2130=ADVANCED_FACE('',(#2120),#1820,.T.);
#2140=COLOUR_RGB('',0.313725501298904,0.784313797950745,
0.313725501298904);
#2150=FILL_AREA_STYLE_COLOUR('',#2140);
#2160=FILL_AREA_STYLE('',(#2150));
#2170=SURFACE_STYLE_FILL_AREA(#2160);
#2180=SURFACE_SIDE_STYLE('',(#2170));
#2190=SURFACE_STYLE_USAGE(.BOTH.,#2180);
#2200=PRESENTATION_STYLE_ASSIGNMENT((#2190));
#2210=CARTESIAN_POINT('',(47.328728622368,70.4970180907559,
-0.775994539892032));
#2220=DIRECTION('',(-1.14503107314642E-17,-1.,2.08166817117216E-17));
#2230=DIRECTION('',(1.,-1.14503107314641E-17,1.88737914186277E-15));
#2240=AXIS2_PLACEMENT_3D('',#2210,#2220,#2230);
#2250=PLANE('',#2240);
#2260=EDGE_CURVE('',#660,#750,#730,.T.);
#2270=ORIENTED_EDGE('',*,*,#2260,.F.);
#2280=ORIENTED_EDGE('',*,*,#760,.F.);
#2290=EDGE_LOOP('',(#2280,#2270));
#2300=FACE_BOUND('',#2290,.T.);
#2310=CARTESIAN_POINT('',(47.9183180398275,70.4970180907559,0.));
#2320=DIRECTION('',(-2.46519032881566E-32,-1.,2.74122250617295E-17));
#2330=DIRECTION('',(1.,-1.14503107314641E-17,1.88737914186277E-15));
#2340=AXIS2_PLACEMENT_3D('',#2310,#2320,#2330);
#2350=CIRCLE('',#2340,1.62);
#2360=CARTESIAN_POINT('',(49.5383180398275,70.4970180907559,
2.92871675202756E-15));
#2370=VERTEX_POINT('',#2360);
#2380=CARTESIAN_POINT('',(46.2983180398275,70.4970180907559,
-2.98799888614594E-15));
#2390=VERTEX_POINT('',#2380);
#2400=EDGE_CURVE('',#2370,#2390,#2350,.T.);
#2410=ORIENTED_EDGE('',*,*,#2400,.T.);
#2420=EDGE_CURVE('',#2390,#2370,#2350,.T.);
#2430=ORIENTED_EDGE('',*,*,#2420,.T.);
#2440=EDGE_LOOP('',(#2430,#2410));
#2450=FACE_OUTER_BOUND('',#2440,.T.);
#2460=ADVANCED_FACE('',(#2300,#2450),#2250,.T.);
#2470=COLOUR_RGB('',0.313725501298904,0.784313797950745,
0.313725501298904);
#2480=FILL_AREA_STYLE_COLOUR('',#2470);
#2490=FILL_AREA_STYLE('',(#2480));
#2500=SURFACE_STYLE_FILL_AREA(#2490);
#2510=SURFACE_SIDE_STYLE('',(#2500));
#2520=SURFACE_STYLE_USAGE(.BOTH.,#2510);
#2530=PRESENTATION_STYLE_ASSIGNMENT((#2520));
#2540=CARTESIAN_POINT('',(48.9865537492937,93.2970180907559,
-0.44247771867213));
#2550=DIRECTION('',(1.4648342812113E-17,1.,-2.55557704473121E-17));
#2560=DIRECTION('',(0.923879532511287,-2.33130740608317E-17,
-0.382683432365088));
#2570=AXIS2_PLACEMENT_3D('',#2540,#2550,#2560);
#2580=PLANE('',#2570);
#2590=EDGE_CURVE('',#640,#830,#900,.T.);
#2600=ORIENTED_EDGE('',*,*,#2590,.T.);
#2610=ORIENTED_EDGE('',*,*,#910,.T.);
#2620=EDGE_LOOP('',(#2610,#2600));
#2630=FACE_BOUND('',#2620,.T.);
#2640=ORIENTED_EDGE('',*,*,#2070,.F.);
#2650=EDGE_CURVE('',#1970,#1880,#2040,.T.);
#2660=ORIENTED_EDGE('',*,*,#2650,.F.);
#2670=ORIENTED_EDGE('',*,*,#2090,.F.);
#2680=EDGE_LOOP('',(#2670,#2660,#2640));
#2690=FACE_OUTER_BOUND('',#2680,.T.);
#2700=ADVANCED_FACE('',(#2630,#2690),#2580,.T.);
#2710=COLOUR_RGB('',0.313725501298904,0.784313797950745,
0.313725501298904);
#2720=FILL_AREA_STYLE_COLOUR('',#2710);
#2730=FILL_AREA_STYLE('',(#2720));
#2740=SURFACE_STYLE_FILL_AREA(#2730);
#2750=SURFACE_SIDE_STYLE('',(#2740));
#2760=SURFACE_STYLE_USAGE(.BOTH.,#2750);
#2770=PRESENTATION_STYLE_ASSIGNMENT((#2760));
#2780=CARTESIAN_POINT('',(47.9183180398275,65.7970180907559,0.));
#2790=DIRECTION('',(-2.46519032881566E-32,-1.,2.74122250617295E-17));
#2800=DIRECTION('',(1.,-1.14503107314641E-17,1.88737914186277E-15));
#2810=AXIS2_PLACEMENT_3D('',#2780,#2790,#2800);
#2820=CYLINDRICAL_SURFACE('',#2810,1.62);
#2830=CARTESIAN_POINT('',(46.2983180398275,65.7970180907559,
-2.85916142835581E-15));
#2840=DIRECTION('',(-2.46519032881566E-32,-1.,2.74122250617294E-17));
#2850=VECTOR('',#2840,1.);
#2860=LINE('',#2830,#2850);
#2870=EDGE_CURVE('',#2390,#1570,#2860,.T.);
#2880=ORIENTED_EDGE('',*,*,#2870,.T.);
#2890=ORIENTED_EDGE('',*,*,#2420,.F.);
#2900=CARTESIAN_POINT('',(49.5383180398275,65.7970180907559,
3.05755420981769E-15));
#2910=DIRECTION('',(-2.46519032881566E-32,-1.,2.74122250617294E-17));
#2920=VECTOR('',#2910,1.);
#2930=LINE('',#2900,#2920);
#2940=EDGE_CURVE('',#2370,#1550,#2930,.T.);
#2950=ORIENTED_EDGE('',*,*,#2940,.F.);
#2960=ORIENTED_EDGE('',*,*,#1600,.T.);
#2970=EDGE_LOOP('',(#2960,#2950,#2890,#2880));
#2980=FACE_OUTER_BOUND('',#2970,.T.);
#2990=ADVANCED_FACE('',(#2980),#2820,.F.);
#3000=COLOUR_RGB('',0.313725501298904,0.784313797950745,
0.313725501298904);
#3010=FILL_AREA_STYLE_COLOUR('',#3000);
#3020=FILL_AREA_STYLE('',(#3010));
#3030=SURFACE_STYLE_FILL_AREA(#3020);
#3040=SURFACE_SIDE_STYLE('',(#3030));
#3050=SURFACE_STYLE_USAGE(.BOTH.,#3040);
#3060=PRESENTATION_STYLE_ASSIGNMENT((#3050));
#3070=CARTESIAN_POINT('',(47.9183180398275,65.7970180907559,
7.105427357601E-15));
#3080=DIRECTION('',(1.91052250483214E-31,-1.,2.74122250617291E-17));
#3090=DIRECTION('',(1.,-1.14503107314641E-17,1.88737914186277E-15));
#3100=AXIS2_PLACEMENT_3D('',#3070,#3080,#3090);
#3110=CYLINDRICAL_SURFACE('',#3100,2.0875);
#3120=ORIENTED_EDGE('',*,*,#230,.T.);
#3130=ORIENTED_EDGE('',*,*,#1640,.F.);
#3140=ORIENTED_EDGE('',*,*,#400,.F.);
#3150=ORIENTED_EDGE('',*,*,#1100,.T.);
#3160=ORIENTED_EDGE('',*,*,#1130,.T.);
#3170=EDGE_LOOP('',(#3160,#3150,#3140,#3130,#3120));
#3180=FACE_OUTER_BOUND('',#3170,.T.);
#3190=ADVANCED_FACE('',(#3180),#3110,.F.);
#3200=COLOUR_RGB('',0.313725501298904,0.784313797950745,
0.313725501298904);
#3210=FILL_AREA_STYLE_COLOUR('',#3200);
#3220=FILL_AREA_STYLE('',(#3210));
#3230=SURFACE_STYLE_FILL_AREA(#3220);
#3240=SURFACE_SIDE_STYLE('',(#3230));
#3250=SURFACE_STYLE_USAGE(.BOTH.,#3240);
#3260=PRESENTATION_STYLE_ASSIGNMENT((#3250));
#3270=CARTESIAN_POINT('',(47.9183180398275,65.7970180907559,0.));
#3280=DIRECTION('',(-2.46519032881566E-32,-1.,2.74122250617295E-17));
#3290=DIRECTION('',(1.,-1.14503107314641E-17,1.88737914186277E-15));
#3300=AXIS2_PLACEMENT_3D('',#3270,#3280,#3290);
#3310=CYLINDRICAL_SURFACE('',#3300,1.62);
#3320=ORIENTED_EDGE('',*,*,#2400,.F.);
#3330=ORIENTED_EDGE('',*,*,#2870,.F.);
#3340=ORIENTED_EDGE('',*,*,#1580,.T.);
#3350=ORIENTED_EDGE('',*,*,#2940,.T.);
#3360=EDGE_LOOP('',(#3350,#3340,#3330,#3320));
#3370=FACE_OUTER_BOUND('',#3360,.T.);
#3380=ADVANCED_FACE('',(#3370),#3310,.F.);
#3390=COLOUR_RGB('',0.313725501298904,0.784313797950745,
0.313725501298904);
#3400=FILL_AREA_STYLE_COLOUR('',#3390);
#3410=FILL_AREA_STYLE('',(#3400));
#3420=SURFACE_STYLE_FILL_AREA(#3410);
#3430=SURFACE_SIDE_STYLE('',(#3420));
#3440=SURFACE_STYLE_USAGE(.BOTH.,#3430);
#3450=PRESENTATION_STYLE_ASSIGNMENT((#3440));
#3460=CARTESIAN_POINT('',(47.9183180398275,96.0470204907559,
-7.105427357601E-15));
#3470=DIRECTION('',(-2.46519032881566E-32,-1.,2.74122250617295E-17));
#3480=DIRECTION('',(1.,-1.14503107314641E-17,1.88737914186277E-15));
#3490=AXIS2_PLACEMENT_3D('',#3460,#3470,#3480);
#3500=CYLINDRICAL_SURFACE('',#3490,1.5375);
#3510=ORIENTED_EDGE('',*,*,#2590,.F.);
#3520=ORIENTED_EDGE('',*,*,#840,.F.);
#3530=ORIENTED_EDGE('',*,*,#2260,.T.);
#3540=ORIENTED_EDGE('',*,*,#670,.T.);
#3550=EDGE_LOOP('',(#3540,#3530,#3520,#3510));
#3560=FACE_OUTER_BOUND('',#3550,.T.);
#3570=ADVANCED_FACE('',(#3560),#3500,.F.);
#3580=COLOUR_RGB('',0.313725501298904,0.784313797950745,
0.313725501298904);
#3590=FILL_AREA_STYLE_COLOUR('',#3580);
#3600=FILL_AREA_STYLE('',(#3590));
#3610=SURFACE_STYLE_FILL_AREA(#3600);
#3620=SURFACE_SIDE_STYLE('',(#3610));
#3630=SURFACE_STYLE_USAGE(.BOTH.,#3620);
#3640=PRESENTATION_STYLE_ASSIGNMENT((#3630));
#3650=CARTESIAN_POINT('',(47.9183180398275,65.7970180907559,0.));
#3660=DIRECTION('',(0.,-1.,4.11349932959262E-17));
#3670=DIRECTION('',(0.991444861373811,-1.33484632305421E-18,
-0.13052619222005));
#3680=AXIS2_PLACEMENT_3D('',#3650,#3660,#3670);
#3690=CONICAL_SURFACE('',#3680,2.5125,0.00727259905240371);
#3700=ORIENTED_EDGE('',*,*,#1300,.F.);
#3710=ORIENTED_EDGE('',*,*,#1890,.T.);
#3720=ORIENTED_EDGE('',*,*,#2650,.T.);
#3730=ORIENTED_EDGE('',*,*,#1980,.F.);
#3740=ORIENTED_EDGE('',*,*,#1320,.F.);
#3750=EDGE_LOOP('',(#3740,#3730,#3720,#3710,#3700));
#3760=FACE_OUTER_BOUND('',#3750,.T.);
#3770=ADVANCED_FACE('',(#3760),#3690,.T.);
#3780=COLOUR_RGB('',0.313725501298904,0.784313797950745,
0.313725501298904);
#3790=FILL_AREA_STYLE_COLOUR('',#3780);
#3800=FILL_AREA_STYLE('',(#3790));
#3810=SURFACE_STYLE_FILL_AREA(#3800);
#3820=SURFACE_SIDE_STYLE('',(#3810));
#3830=SURFACE_STYLE_USAGE(.BOTH.,#3820);
#3840=PRESENTATION_STYLE_ASSIGNMENT((#3830));
#3850=CLOSED_SHELL('',(#460,#950,#1360,#1700,#2130,#2460,#2700,#2990,
#3190,#3380,#3570,#3770));
#3860=MANIFOLD_SOLID_BREP('',#3850);
#3870=CARTESIAN_POINT('',(0.,0.,0.));
#3880=DIRECTION('',(0.,0.,1.));
#3890=DIRECTION('',(1.,0.,0.));
#3900=AXIS2_PLACEMENT_3D('',#3870,#3880,#3890);
#3910=APPLICATION_CONTEXT(' ');
#3920=APPLICATION_PROTOCOL_DEFINITION(' ','automotive_design',1998,#3910
);
#3930=PRODUCT_CONTEXT('',#3910,'mechanical');
#3940=PRODUCT_DEFINITION_CONTEXT('part definition',#3910,'design');
#3950=PRODUCT('MPS-IH-GN-select','MPS-IH-GN-select','',(#3930));
#3960=PRODUCT_RELATED_PRODUCT_CATEGORY('part',' ',(#3950));
#3970=PRODUCT_DEFINITION_FORMATION_WITH_SPECIFIED_SOURCE('','',#3950,
.BOUGHT.);
#3980=PRODUCT_DEFINITION('',' ',#3970,#3940);
#3990=PRODUCT_DEFINITION_SHAPE('','',#3980);
#4000=DIMENSIONAL_EXPONENTS(1.,0.,0.,0.,0.,0.,0.);
#4010=DIMENSIONAL_EXPONENTS(0.,0.,0.,0.,0.,0.,0.);
#4020=DIMENSIONAL_EXPONENTS(0.,0.,0.,0.,0.,0.,0.);
#4030=(LENGTH_UNIT() NAMED_UNIT(*) SI_UNIT(.MILLI.,.METRE.));
#4040=(NAMED_UNIT(*) PLANE_ANGLE_UNIT() SI_UNIT($,.RADIAN.));
#4050=(NAMED_UNIT(*) SI_UNIT($,.STERADIAN.) SOLID_ANGLE_UNIT());
#4060=(GEOMETRIC_REPRESENTATION_CONTEXT(3) 
GLOBAL_UNCERTAINTY_ASSIGNED_CONTEXT((#4070)) 
GLOBAL_UNIT_ASSIGNED_CONTEXT((#4030,#4040,#4050)) REPRESENTATION_CONTEXT
('',''));
#4070=UNCERTAINTY_MEASURE_WITH_UNIT(LENGTH_MEASURE(1.E-6),#4030,
'distance_accuracy_value','maximum gap value');
#4080=ADVANCED_BREP_SHAPE_REPRESENTATION('',(#3900,#3860),#4060);
#4090=SHAPE_DEFINITION_REPRESENTATION(#3990,#4080);
#4100=COLOUR_RGB('',0.313725501298904,0.784313797950745,
0.313725501298904);
#4110=FILL_AREA_STYLE_COLOUR('',#4100);
#4120=FILL_AREA_STYLE('',(#4110));
#4130=SURFACE_STYLE_FILL_AREA(#4120);
#4140=SURFACE_SIDE_STYLE('',(#4130));
#4150=SURFACE_STYLE_USAGE(.BOTH.,#4140);
#4160=PRESENTATION_STYLE_ASSIGNMENT((#4150));
#4170=STYLED_ITEM('',(#4160),#3860);
#4180=OVER_RIDING_STYLED_ITEM('',(#530),#460,#4170);
#4190=OVER_RIDING_STYLED_ITEM('',(#1020),#950,#4170);
#4200=OVER_RIDING_STYLED_ITEM('',(#1430),#1360,#4170);
#4210=OVER_RIDING_STYLED_ITEM('',(#1770),#1700,#4170);
#4220=OVER_RIDING_STYLED_ITEM('',(#2200),#2130,#4170);
#4230=OVER_RIDING_STYLED_ITEM('',(#2530),#2460,#4170);
#4240=OVER_RIDING_STYLED_ITEM('',(#2770),#2700,#4170);
#4250=OVER_RIDING_STYLED_ITEM('',(#3060),#2990,#4170);
#4260=OVER_RIDING_STYLED_ITEM('',(#3260),#3190,#4170);
#4270=OVER_RIDING_STYLED_ITEM('',(#3450),#3380,#4170);
#4280=OVER_RIDING_STYLED_ITEM('',(#3640),#3570,#4170);
#4290=OVER_RIDING_STYLED_ITEM('',(#3840),#3770,#4170);
#4300=DRAUGHTING_MODEL('',(#4170,#4180,#4190,#4200,#4210,#4220,#4230,
#4240,#4250,#4260,#4270,#4280,#4290),#4060);
#4310=CARTESIAN_POINT('',(-45.4058180398275,2.51249999999997,
-65.7970180907562));
#4320=DIRECTION('',(0.,-1.,5.89805981832114E-17));
#4330=DIRECTION('',(1.,0.,0.));
#4340=AXIS2_PLACEMENT_3D('',#4310,#4320,#4330);
#4350=ITEM_DEFINED_TRANSFORMATION('MPS-IH-GN-select','',#3900,#4340);
#4360=APPLICATION_CONTEXT(' ');
#4370=APPLICATION_PROTOCOL_DEFINITION(' ','automotive_design',1998,#4360
);
#4380=PRODUCT_CONTEXT('',#4360,'mechanical');
#4390=PRODUCT_DEFINITION_CONTEXT('part definition',#4360,'design');
#4400=PRODUCT('MPS-IH-GN-select','MPS-IH-GN-select','',(#4380));
#4410=PRODUCT_RELATED_PRODUCT_CATEGORY('part',' ',(#4400));
#4420=PRODUCT_DEFINITION_FORMATION_WITH_SPECIFIED_SOURCE('','',#4400,
.BOUGHT.);
#4430=PRODUCT_DEFINITION('',' ',#4420,#4390);
#4440=PRODUCT_DEFINITION_SHAPE('','',#4430);
#4450=DIMENSIONAL_EXPONENTS(1.,0.,0.,0.,0.,0.,0.);
#4460=DIMENSIONAL_EXPONENTS(0.,0.,0.,0.,0.,0.,0.);
#4470=DIMENSIONAL_EXPONENTS(0.,0.,0.,0.,0.,0.,0.);
#4480=(LENGTH_UNIT() NAMED_UNIT(*) SI_UNIT(.MILLI.,.METRE.));
#4490=(NAMED_UNIT(*) PLANE_ANGLE_UNIT() SI_UNIT($,.RADIAN.));
#4500=(NAMED_UNIT(*) SI_UNIT($,.STERADIAN.) SOLID_ANGLE_UNIT());
#4510=(GEOMETRIC_REPRESENTATION_CONTEXT(3) 
GLOBAL_UNCERTAINTY_ASSIGNED_CONTEXT((#4520)) 
GLOBAL_UNIT_ASSIGNED_CONTEXT((#4480,#4490,#4500)) REPRESENTATION_CONTEXT
('',''));
#4520=UNCERTAINTY_MEASURE_WITH_UNIT(LENGTH_MEASURE(1.E-6),#4480,
'distance_accuracy_value','maximum gap value');
#4530=SHAPE_REPRESENTATION('',(#3900,#4340),#4510);
#4540=SHAPE_DEFINITION_REPRESENTATION(#4440,#4530);
#4550=(REPRESENTATION_RELATIONSHIP('','',#4080,#4530) 
REPRESENTATION_RELATIONSHIP_WITH_TRANSFORMATION(#4350) 
SHAPE_REPRESENTATION_RELATIONSHIP());
#4560=NEXT_ASSEMBLY_USAGE_OCCURRENCE('1','','MPS-IH-GN-select',#4430,
#3980,'');
#4570=PRODUCT_DEFINITION_SHAPE('','',#4560);
#4580=CONTEXT_DEPENDENT_SHAPE_REPRESENTATION(#4550,#4570);
ENDSEC;
END-ISO-10303-21;
