ISO-10303-21;
HEADER;
FILE_DESCRIPTION(('Creo Elements/Direct Modeling STEP Export'),'2;1');
FILE_NAME(
'C:/temp/JobSpoolerServerData/JobServer Files/be4a1657-cfd3-4537-9d80-dd
09592530a1/work/output/model.stp','2020-02-12T14:33:31',(''),(''),
'Creo Elements/Direct Modeling STEP processor for AP214 (Solid Model)',
'Creo Elements/Direct Modeling 20.1A  29-Sep-2018 (C) Parametric Technol
ogy GmbH','');
FILE_SCHEMA(('AUTOMOTIVE_DESIGN { 1 0 10303 214 1 1 1 1 }'));
ENDSEC;
DATA;
#10=CARTESIAN_POINT('',(47.9183180398275,65.7970180907559,
7.105427357601E-15));
#20=DIRECTION('',(1.91052250483214E-31,-1.,2.74122250617291E-17));
#30=DIRECTION('',(1.,-1.14503107314641E-17,1.88737914186277E-15));
#40=AXIS2_PLACEMENT_3D('',#10,#20,#30);
#50=CYLINDRICAL_SURFACE('',#40,2.0875);
#60=CARTESIAN_POINT('',(47.9183180398275,67.1970180907559,0.));
#70=DIRECTION('',(-2.46519032881566E-32,-1.,2.74122250617295E-17));
#80=DIRECTION('',(1.,-1.14503107314641E-17,1.88737914186277E-15));
#90=AXIS2_PLACEMENT_3D('',#60,#70,#80);
#100=CIRCLE('',#90,2.0875);
#110=CARTESIAN_POINT('',(46.1654707337581,67.1970180907559,
-1.13365893089824));
#120=VERTEX_POINT('',#110);
#130=CARTESIAN_POINT('',(50.0058180398275,67.1970180907559,
1.10069542011531E-14));
#140=VERTEX_POINT('',#130);
#150=EDGE_CURVE('',#120,#140,#100,.T.);
#160=ORIENTED_EDGE('',*,*,#150,.F.);
#170=CARTESIAN_POINT('',(50.0058180398275,65.7970180907559,
1.10453313162395E-14));
#180=DIRECTION('',(1.91052250483214E-31,-1.,2.74122250617291E-17));
#190=VECTOR('',#180,1.);
#200=LINE('',#170,#190);
#210=CARTESIAN_POINT('',(50.0058180398275,65.7970180907559,
1.10453313162395E-14));
#220=VERTEX_POINT('',#210);
#230=EDGE_CURVE('',#140,#220,#200,.T.);
#240=ORIENTED_EDGE('',*,*,#230,.F.);
#250=CARTESIAN_POINT('',(47.9183180398275,65.7970180907559,0.));
#260=DIRECTION('',(-2.46519032881566E-32,-1.,2.74122250617295E-17));
#270=DIRECTION('',(1.,-1.14503107314641E-17,1.88737914186277E-15));
#280=AXIS2_PLACEMENT_3D('',#250,#260,#270);
#290=CIRCLE('',#280,2.0875);
#300=CARTESIAN_POINT('',(45.8308180398275,65.7970180907559,
3.42116841828449E-15));
#310=VERTEX_POINT('',#300);
#320=EDGE_CURVE('',#310,#220,#290,.T.);
#330=ORIENTED_EDGE('',*,*,#320,.T.);
#340=CARTESIAN_POINT('',(45.8308180398275,65.7970180907559,
3.42116841828449E-15));
#350=DIRECTION('',(1.91052250483214E-31,-1.,2.74122250617291E-17));
#360=VECTOR('',#350,1.);
#370=LINE('',#340,#360);
#380=CARTESIAN_POINT('',(45.8308180398275,67.1970180907559,
3.38279130319807E-15));
#390=VERTEX_POINT('',#380);
#400=EDGE_CURVE('',#390,#310,#370,.T.);
#410=ORIENTED_EDGE('',*,*,#400,.T.);
#420=EDGE_CURVE('',#390,#120,#100,.T.);
#430=ORIENTED_EDGE('',*,*,#420,.F.);
#440=EDGE_LOOP('',(#430,#410,#330,#240,#160));
#450=FACE_OUTER_BOUND('',#440,.T.);
#460=ADVANCED_FACE('',(#450),#50,.F.);
#470=COLOUR_RGB('',0.560784339904785,0.588235318660736,0.600000023841858
);
#480=FILL_AREA_STYLE_COLOUR('',#470);
#490=FILL_AREA_STYLE('',(#480));
#500=SURFACE_STYLE_FILL_AREA(#490);
#510=SURFACE_SIDE_STYLE('',(#500));
#520=SURFACE_STYLE_USAGE(.BOTH.,#510);
#530=PRESENTATION_STYLE_ASSIGNMENT((#520));
#540=CARTESIAN_POINT('',(48.9149681735684,65.7970180907559,
-0.764756545192206));
#550=DIRECTION('',(3.15298636638278E-18,1.,-2.51938482398112E-17));
#560=DIRECTION('',(-0.793353340291236,1.78384753223588E-17,
0.608761429008719));
#570=AXIS2_PLACEMENT_3D('',#540,#550,#560);
#580=PLANE('',#570);
#590=CARTESIAN_POINT('',(48.3701357339233,65.7970180907559,
2.03801791486287));
#600=VERTEX_POINT('',#590);
#610=EDGE_CURVE('',#600,#310,#290,.T.);
#620=ORIENTED_EDGE('',*,*,#610,.F.);
#630=ORIENTED_EDGE('',*,*,#320,.F.);
#640=EDGE_CURVE('',#220,#600,#290,.T.);
#650=ORIENTED_EDGE('',*,*,#640,.F.);
#660=EDGE_LOOP('',(#650,#630,#620));
#670=FACE_BOUND('',#660,.T.);
#680=CARTESIAN_POINT('',(47.9183180398275,65.7970180907559,0.));
#690=DIRECTION('',(-2.46519032881566E-32,-1.,2.74122250617295E-17));
#700=DIRECTION('',(0.99144486137381,-2.18447627427156E-17,
0.130526192220054));
#710=AXIS2_PLACEMENT_3D('',#680,#690,#700);
#720=CIRCLE('',#710,2.5125);
#730=CARTESIAN_POINT('',(45.4273128256258,65.7970180907559,
0.327947057952875));
#740=VERTEX_POINT('',#730);
#750=CARTESIAN_POINT('',(50.4093232540292,65.7970180907559,
-0.327947057952876));
#760=VERTEX_POINT('',#750);
#770=EDGE_CURVE('',#740,#760,#720,.T.);
#780=ORIENTED_EDGE('',*,*,#770,.T.);
#790=CARTESIAN_POINT('',(48.462122569847,65.7970180907559,
2.45294371788883));
#800=VERTEX_POINT('',#790);
#810=EDGE_CURVE('',#800,#740,#720,.T.);
#820=ORIENTED_EDGE('',*,*,#810,.T.);
#830=EDGE_CURVE('',#760,#800,#720,.T.);
#840=ORIENTED_EDGE('',*,*,#830,.T.);
#850=EDGE_LOOP('',(#840,#820,#780));
#860=FACE_OUTER_BOUND('',#850,.T.);
#870=ADVANCED_FACE('',(#670,#860),#580,.F.);
#880=COLOUR_RGB('',0.560784339904785,0.588235318660736,0.600000023841858
);
#890=FILL_AREA_STYLE_COLOUR('',#880);
#900=FILL_AREA_STYLE('',(#890));
#910=SURFACE_STYLE_FILL_AREA(#900);
#920=SURFACE_SIDE_STYLE('',(#910));
#930=SURFACE_STYLE_USAGE(.BOTH.,#920);
#940=PRESENTATION_STYLE_ASSIGNMENT((#930));
#950=CARTESIAN_POINT('',(47.9183180398275,96.0470204907559,
-7.105427357601E-15));
#960=DIRECTION('',(-2.46519032881566E-32,-1.,2.74122250617295E-17));
#970=DIRECTION('',(1.,-1.14503107314641E-17,1.88737914186277E-15));
#980=AXIS2_PLACEMENT_3D('',#950,#960,#970);
#990=CYLINDRICAL_SURFACE('',#980,1.5375);
#1000=CARTESIAN_POINT('',(49.4558180398275,96.0470204907559,
-4.203581926987E-15));
#1010=DIRECTION('',(-2.46519032881566E-32,-1.,2.74122250617294E-17));
#1020=VECTOR('',#1010,1.);
#1030=LINE('',#1000,#1020);
#1040=CARTESIAN_POINT('',(49.4558180398275,93.2970180907559,
-4.1281982422779E-15));
#1050=VERTEX_POINT('',#1040);
#1060=CARTESIAN_POINT('',(49.4558180398275,70.4970180907559,
-3.50319951087047E-15));
#1070=VERTEX_POINT('',#1060);
#1080=EDGE_CURVE('',#1050,#1070,#1030,.T.);
#1090=ORIENTED_EDGE('',*,*,#1080,.F.);
#1100=CARTESIAN_POINT('',(47.9183180398275,70.4970180907559,0.));
#1110=DIRECTION('',(-2.46519032881566E-32,-1.,2.74122250617295E-17));
#1120=DIRECTION('',(1.,-1.14503107314641E-17,1.88737914186277E-15));
#1130=AXIS2_PLACEMENT_3D('',#1100,#1110,#1120);
#1140=CIRCLE('',#1130,1.5375);
#1150=CARTESIAN_POINT('',(46.3808180398275,70.4970180907559,
-9.11860092672957E-15));
#1160=VERTEX_POINT('',#1150);
#1170=EDGE_CURVE('',#1160,#1070,#1140,.T.);
#1180=ORIENTED_EDGE('',*,*,#1170,.T.);
#1190=CARTESIAN_POINT('',(46.3808180398275,96.0470204907559,
-9.8189833428461E-15));
#1200=DIRECTION('',(-2.46519032881566E-32,-1.,2.74122250617294E-17));
#1210=VECTOR('',#1200,1.);
#1220=LINE('',#1190,#1210);
#1230=CARTESIAN_POINT('',(46.3808180398275,93.2970180907559,
-9.743599658137E-15));
#1240=VERTEX_POINT('',#1230);
#1250=EDGE_CURVE('',#1240,#1160,#1220,.T.);
#1260=ORIENTED_EDGE('',*,*,#1250,.T.);
#1270=CARTESIAN_POINT('',(47.9183180398275,93.2970180907559,0.));
#1280=DIRECTION('',(-2.46519032881566E-32,-1.,2.74122250617295E-17));
#1290=DIRECTION('',(1.,-2.53280985392786E-17,1.77635683940025E-15));
#1300=AXIS2_PLACEMENT_3D('',#1270,#1280,#1290);
#1310=CIRCLE('',#1300,1.5375);
#1320=EDGE_CURVE('',#1240,#1050,#1310,.T.);
#1330=ORIENTED_EDGE('',*,*,#1320,.F.);
#1340=EDGE_LOOP('',(#1330,#1260,#1180,#1090));
#1350=FACE_OUTER_BOUND('',#1340,.T.);
#1360=ADVANCED_FACE('',(#1350),#990,.F.);
#1370=COLOUR_RGB('',0.560784339904785,0.588235318660736,
0.600000023841858);
#1380=FILL_AREA_STYLE_COLOUR('',#1370);
#1390=FILL_AREA_STYLE('',(#1380));
#1400=SURFACE_STYLE_FILL_AREA(#1390);
#1410=SURFACE_SIDE_STYLE('',(#1400));
#1420=SURFACE_STYLE_USAGE(.BOTH.,#1410);
#1430=PRESENTATION_STYLE_ASSIGNMENT((#1420));
#1440=CARTESIAN_POINT('',(47.328728622368,70.4970180907559,
-0.775994539892032));
#1450=DIRECTION('',(-1.14503107314642E-17,-1.,2.08166817117216E-17));
#1460=DIRECTION('',(1.,-1.14503107314641E-17,1.88737914186277E-15));
#1470=AXIS2_PLACEMENT_3D('',#1440,#1450,#1460);
#1480=PLANE('',#1470);
#1490=EDGE_CURVE('',#1070,#1160,#1140,.T.);
#1500=ORIENTED_EDGE('',*,*,#1490,.F.);
#1510=ORIENTED_EDGE('',*,*,#1170,.F.);
#1520=EDGE_LOOP('',(#1510,#1500));
#1530=FACE_BOUND('',#1520,.T.);
#1540=CARTESIAN_POINT('',(47.9183180398275,70.4970180907559,0.));
#1550=DIRECTION('',(-2.46519032881566E-32,-1.,2.74122250617295E-17));
#1560=DIRECTION('',(1.,-1.14503107314641E-17,1.88737914186277E-15));
#1570=AXIS2_PLACEMENT_3D('',#1540,#1550,#1560);
#1580=CIRCLE('',#1570,1.62);
#1590=CARTESIAN_POINT('',(49.5383180398275,70.4970180907559,
2.92871675202756E-15));
#1600=VERTEX_POINT('',#1590);
#1610=CARTESIAN_POINT('',(46.2983180398275,70.4970180907559,
-2.98799888614594E-15));
#1620=VERTEX_POINT('',#1610);
#1630=EDGE_CURVE('',#1600,#1620,#1580,.T.);
#1640=ORIENTED_EDGE('',*,*,#1630,.T.);
#1650=EDGE_CURVE('',#1620,#1600,#1580,.T.);
#1660=ORIENTED_EDGE('',*,*,#1650,.T.);
#1670=EDGE_LOOP('',(#1660,#1640));
#1680=FACE_OUTER_BOUND('',#1670,.T.);
#1690=ADVANCED_FACE('',(#1530,#1680),#1480,.T.);
#1700=COLOUR_RGB('',0.560784339904785,0.588235318660736,
0.600000023841858);
#1710=FILL_AREA_STYLE_COLOUR('',#1700);
#1720=FILL_AREA_STYLE('',(#1710));
#1730=SURFACE_STYLE_FILL_AREA(#1720);
#1740=SURFACE_SIDE_STYLE('',(#1730));
#1750=SURFACE_STYLE_USAGE(.BOTH.,#1740);
#1760=PRESENTATION_STYLE_ASSIGNMENT((#1750));
#1770=CARTESIAN_POINT('',(47.9183180398275,65.7970180907559,0.));
#1780=DIRECTION('',(0.,-1.,4.11349932959262E-17));
#1790=DIRECTION('',(0.991444861373811,-1.3348463230542E-18,
-0.13052619222005));
#1800=AXIS2_PLACEMENT_3D('',#1770,#1780,#1790);
#1810=CONICAL_SURFACE('',#1800,2.5125,0.00727259905240371);
#1820=CARTESIAN_POINT('',(45.4273128256258,65.7970180907559,
0.327947057952875));
#1830=DIRECTION('',(-0.00721031739916005,-0.999973554768071,
0.000949256293997305));
#1840=VECTOR('',#1830,345.477886242828);
#1850=LINE('',#1820,#1840);
#1860=CARTESIAN_POINT('',(45.6256017979006,93.2970180907559,
0.301841819508864));
#1870=VERTEX_POINT('',#1860);
#1880=EDGE_CURVE('',#1870,#740,#1850,.T.);
#1890=ORIENTED_EDGE('',*,*,#1880,.F.);
#1900=ORIENTED_EDGE('',*,*,#770,.F.);
#1910=CARTESIAN_POINT('',(50.4093232540292,65.7970180907559,
-0.327947057952876));
#1920=DIRECTION('',(0.00721031739916005,-0.999973554768071,
-0.000949256293997225));
#1930=VECTOR('',#1920,345.477886242828);
#1940=LINE('',#1910,#1930);
#1950=CARTESIAN_POINT('',(50.2110342817544,93.2970180907559,
-0.301841819508867));
#1960=VERTEX_POINT('',#1950);
#1970=EDGE_CURVE('',#1960,#760,#1940,.T.);
#1980=ORIENTED_EDGE('',*,*,#1970,.T.);
#1990=CARTESIAN_POINT('',(47.9183180398275,93.2970180907559,
-4.44089209850063E-16));
#2000=DIRECTION('',(-2.46519032881566E-32,-1.,2.74122250617295E-17));
#2010=DIRECTION('',(0.608761429008723,2.17475803175381E-17,
0.793353340291233));
#2020=AXIS2_PLACEMENT_3D('',#1990,#2000,#2010);
#2030=CIRCLE('',#2020,2.3125);
#2040=CARTESIAN_POINT('',(46.5018500734969,93.2970180907559,
-1.82791541116083));
#2050=VERTEX_POINT('',#2040);
#2060=EDGE_CURVE('',#2050,#1960,#2030,.T.);
#2070=ORIENTED_EDGE('',*,*,#2060,.T.);
#2080=EDGE_CURVE('',#1870,#2050,#2030,.T.);
#2090=ORIENTED_EDGE('',*,*,#2080,.T.);
#2100=EDGE_LOOP('',(#2090,#2070,#1980,#1900,#1890));
#2110=FACE_OUTER_BOUND('',#2100,.T.);
#2120=ADVANCED_FACE('',(#2110),#1810,.T.);
#2130=COLOUR_RGB('',0.560784339904785,0.588235318660736,
0.600000023841858);
#2140=FILL_AREA_STYLE_COLOUR('',#2130);
#2150=FILL_AREA_STYLE('',(#2140));
#2160=SURFACE_STYLE_FILL_AREA(#2150);
#2170=SURFACE_SIDE_STYLE('',(#2160));
#2180=SURFACE_STYLE_USAGE(.BOTH.,#2170);
#2190=PRESENTATION_STYLE_ASSIGNMENT((#2180));
#2200=CARTESIAN_POINT('',(48.9865537492937,93.2970180907559,
-0.44247771867213));
#2210=DIRECTION('',(1.4648342812113E-17,1.,-2.55557704473121E-17));
#2220=DIRECTION('',(0.923879532511287,-2.33130740608317E-17,
-0.382683432365088));
#2230=AXIS2_PLACEMENT_3D('',#2200,#2210,#2220);
#2240=PLANE('',#2230);
#2250=EDGE_CURVE('',#1050,#1240,#1310,.T.);
#2260=ORIENTED_EDGE('',*,*,#2250,.T.);
#2270=ORIENTED_EDGE('',*,*,#1320,.T.);
#2280=EDGE_LOOP('',(#2270,#2260));
#2290=FACE_BOUND('',#2280,.T.);
#2300=ORIENTED_EDGE('',*,*,#2060,.F.);
#2310=EDGE_CURVE('',#1960,#1870,#2030,.T.);
#2320=ORIENTED_EDGE('',*,*,#2310,.F.);
#2330=ORIENTED_EDGE('',*,*,#2080,.F.);
#2340=EDGE_LOOP('',(#2330,#2320,#2300));
#2350=FACE_OUTER_BOUND('',#2340,.T.);
#2360=ADVANCED_FACE('',(#2290,#2350),#2240,.T.);
#2370=COLOUR_RGB('',0.560784339904785,0.588235318660736,
0.600000023841858);
#2380=FILL_AREA_STYLE_COLOUR('',#2370);
#2390=FILL_AREA_STYLE('',(#2380));
#2400=SURFACE_STYLE_FILL_AREA(#2390);
#2410=SURFACE_SIDE_STYLE('',(#2400));
#2420=SURFACE_STYLE_USAGE(.BOTH.,#2410);
#2430=PRESENTATION_STYLE_ASSIGNMENT((#2420));
#2440=CARTESIAN_POINT('',(47.9183180398275,65.7970180907559,0.));
#2450=DIRECTION('',(-2.46519032881566E-32,-1.,2.74122250617295E-17));
#2460=DIRECTION('',(1.,-1.14503107314641E-17,1.88737914186277E-15));
#2470=AXIS2_PLACEMENT_3D('',#2440,#2450,#2460);
#2480=CYLINDRICAL_SURFACE('',#2470,1.62);
#2490=CARTESIAN_POINT('',(46.2983180398275,65.7970180907559,
-2.85916142835581E-15));
#2500=DIRECTION('',(-2.46519032881566E-32,-1.,2.74122250617294E-17));
#2510=VECTOR('',#2500,1.);
#2520=LINE('',#2490,#2510);
#2530=CARTESIAN_POINT('',(46.2983180398275,67.1970180907559,
-2.89753854344223E-15));
#2540=VERTEX_POINT('',#2530);
#2550=EDGE_CURVE('',#1620,#2540,#2520,.T.);
#2560=ORIENTED_EDGE('',*,*,#2550,.T.);
#2570=ORIENTED_EDGE('',*,*,#1650,.F.);
#2580=CARTESIAN_POINT('',(49.5383180398275,65.7970180907559,
3.05755420981769E-15));
#2590=DIRECTION('',(-2.46519032881566E-32,-1.,2.74122250617294E-17));
#2600=VECTOR('',#2590,1.);
#2610=LINE('',#2580,#2600);
#2620=CARTESIAN_POINT('',(49.5383180398275,67.1970180907559,
3.01917709473127E-15));
#2630=VERTEX_POINT('',#2620);
#2640=EDGE_CURVE('',#1600,#2630,#2610,.T.);
#2650=ORIENTED_EDGE('',*,*,#2640,.F.);
#2660=CARTESIAN_POINT('',(47.9183180398275,67.1970180907559,0.));
#2670=DIRECTION('',(-2.46519032881566E-32,-1.,2.74122250617295E-17));
#2680=DIRECTION('',(1.,-1.14503107314641E-17,1.88737914186277E-15));
#2690=AXIS2_PLACEMENT_3D('',#2660,#2670,#2680);
#2700=CIRCLE('',#2690,1.62);
#2710=EDGE_CURVE('',#2540,#2630,#2700,.T.);
#2720=ORIENTED_EDGE('',*,*,#2710,.T.);
#2730=EDGE_LOOP('',(#2720,#2650,#2570,#2560));
#2740=FACE_OUTER_BOUND('',#2730,.T.);
#2750=ADVANCED_FACE('',(#2740),#2480,.F.);
#2760=COLOUR_RGB('',0.560784339904785,0.588235318660736,
0.600000023841858);
#2770=FILL_AREA_STYLE_COLOUR('',#2760);
#2780=FILL_AREA_STYLE('',(#2770));
#2790=SURFACE_STYLE_FILL_AREA(#2780);
#2800=SURFACE_SIDE_STYLE('',(#2790));
#2810=SURFACE_STYLE_USAGE(.BOTH.,#2800);
#2820=PRESENTATION_STYLE_ASSIGNMENT((#2810));
#2830=CARTESIAN_POINT('',(47.328728622368,67.1970180907559,
-0.775994539892032));
#2840=DIRECTION('',(-1.14503107314642E-17,-1.,2.08166817117216E-17));
#2850=DIRECTION('',(1.,-1.14503107314641E-17,1.88737914186277E-15));
#2860=AXIS2_PLACEMENT_3D('',#2830,#2840,#2850);
#2870=PLANE('',#2860);
#2880=EDGE_CURVE('',#2630,#2540,#2700,.T.);
#2890=ORIENTED_EDGE('',*,*,#2880,.F.);
#2900=ORIENTED_EDGE('',*,*,#2710,.F.);
#2910=EDGE_LOOP('',(#2900,#2890));
#2920=FACE_BOUND('',#2910,.T.);
#2930=EDGE_CURVE('',#140,#390,#100,.T.);
#2940=ORIENTED_EDGE('',*,*,#2930,.T.);
#2950=ORIENTED_EDGE('',*,*,#150,.T.);
#2960=ORIENTED_EDGE('',*,*,#420,.T.);
#2970=EDGE_LOOP('',(#2960,#2950,#2940));
#2980=FACE_OUTER_BOUND('',#2970,.T.);
#2990=ADVANCED_FACE('',(#2920,#2980),#2870,.T.);
#3000=COLOUR_RGB('',0.560784339904785,0.588235318660736,
0.600000023841858);
#3010=FILL_AREA_STYLE_COLOUR('',#3000);
#3020=FILL_AREA_STYLE('',(#3010));
#3030=SURFACE_STYLE_FILL_AREA(#3020);
#3040=SURFACE_SIDE_STYLE('',(#3030));
#3050=SURFACE_STYLE_USAGE(.BOTH.,#3040);
#3060=PRESENTATION_STYLE_ASSIGNMENT((#3050));
#3070=CARTESIAN_POINT('',(47.9183180398275,65.7970180907559,0.));
#3080=DIRECTION('',(0.,-1.,4.11349932959262E-17));
#3090=DIRECTION('',(0.991444861373811,-1.3348463230542E-18,
-0.13052619222005));
#3100=AXIS2_PLACEMENT_3D('',#3070,#3080,#3090);
#3110=CONICAL_SURFACE('',#3100,2.5125,0.00727259905240371);
#3120=ORIENTED_EDGE('',*,*,#810,.F.);
#3130=ORIENTED_EDGE('',*,*,#1880,.T.);
#3140=ORIENTED_EDGE('',*,*,#2310,.T.);
#3150=ORIENTED_EDGE('',*,*,#1970,.F.);
#3160=ORIENTED_EDGE('',*,*,#830,.F.);
#3170=EDGE_LOOP('',(#3160,#3150,#3140,#3130,#3120));
#3180=FACE_OUTER_BOUND('',#3170,.T.);
#3190=ADVANCED_FACE('',(#3180),#3110,.T.);
#3200=COLOUR_RGB('',0.560784339904785,0.588235318660736,
0.600000023841858);
#3210=FILL_AREA_STYLE_COLOUR('',#3200);
#3220=FILL_AREA_STYLE('',(#3210));
#3230=SURFACE_STYLE_FILL_AREA(#3220);
#3240=SURFACE_SIDE_STYLE('',(#3230));
#3250=SURFACE_STYLE_USAGE(.BOTH.,#3240);
#3260=PRESENTATION_STYLE_ASSIGNMENT((#3250));
#3270=CARTESIAN_POINT('',(47.9183180398275,96.0470204907559,
-7.105427357601E-15));
#3280=DIRECTION('',(-2.46519032881566E-32,-1.,2.74122250617295E-17));
#3290=DIRECTION('',(1.,-1.14503107314641E-17,1.88737914186277E-15));
#3300=AXIS2_PLACEMENT_3D('',#3270,#3280,#3290);
#3310=CYLINDRICAL_SURFACE('',#3300,1.5375);
#3320=ORIENTED_EDGE('',*,*,#2250,.F.);
#3330=ORIENTED_EDGE('',*,*,#1250,.F.);
#3340=ORIENTED_EDGE('',*,*,#1490,.T.);
#3350=ORIENTED_EDGE('',*,*,#1080,.T.);
#3360=EDGE_LOOP('',(#3350,#3340,#3330,#3320));
#3370=FACE_OUTER_BOUND('',#3360,.T.);
#3380=ADVANCED_FACE('',(#3370),#3310,.F.);
#3390=COLOUR_RGB('',0.560784339904785,0.588235318660736,
0.600000023841858);
#3400=FILL_AREA_STYLE_COLOUR('',#3390);
#3410=FILL_AREA_STYLE('',(#3400));
#3420=SURFACE_STYLE_FILL_AREA(#3410);
#3430=SURFACE_SIDE_STYLE('',(#3420));
#3440=SURFACE_STYLE_USAGE(.BOTH.,#3430);
#3450=PRESENTATION_STYLE_ASSIGNMENT((#3440));
#3460=CARTESIAN_POINT('',(47.9183180398275,65.7970180907559,0.));
#3470=DIRECTION('',(-2.46519032881566E-32,-1.,2.74122250617295E-17));
#3480=DIRECTION('',(1.,-1.14503107314641E-17,1.88737914186277E-15));
#3490=AXIS2_PLACEMENT_3D('',#3460,#3470,#3480);
#3500=CYLINDRICAL_SURFACE('',#3490,1.62);
#3510=ORIENTED_EDGE('',*,*,#1630,.F.);
#3520=ORIENTED_EDGE('',*,*,#2550,.F.);
#3530=ORIENTED_EDGE('',*,*,#2880,.T.);
#3540=ORIENTED_EDGE('',*,*,#2640,.T.);
#3550=EDGE_LOOP('',(#3540,#3530,#3520,#3510));
#3560=FACE_OUTER_BOUND('',#3550,.T.);
#3570=ADVANCED_FACE('',(#3560),#3500,.F.);
#3580=COLOUR_RGB('',0.560784339904785,0.588235318660736,
0.600000023841858);
#3590=FILL_AREA_STYLE_COLOUR('',#3580);
#3600=FILL_AREA_STYLE('',(#3590));
#3610=SURFACE_STYLE_FILL_AREA(#3600);
#3620=SURFACE_SIDE_STYLE('',(#3610));
#3630=SURFACE_STYLE_USAGE(.BOTH.,#3620);
#3640=PRESENTATION_STYLE_ASSIGNMENT((#3630));
#3650=CARTESIAN_POINT('',(47.9183180398275,65.7970180907559,
7.105427357601E-15));
#3660=DIRECTION('',(1.91052250483214E-31,-1.,2.74122250617291E-17));
#3670=DIRECTION('',(1.,-1.14503107314641E-17,1.88737914186277E-15));
#3680=AXIS2_PLACEMENT_3D('',#3650,#3660,#3670);
#3690=CYLINDRICAL_SURFACE('',#3680,2.0875);
#3700=ORIENTED_EDGE('',*,*,#230,.T.);
#3710=ORIENTED_EDGE('',*,*,#2930,.F.);
#3720=ORIENTED_EDGE('',*,*,#400,.F.);
#3730=ORIENTED_EDGE('',*,*,#610,.T.);
#3740=ORIENTED_EDGE('',*,*,#640,.T.);
#3750=EDGE_LOOP('',(#3740,#3730,#3720,#3710,#3700));
#3760=FACE_OUTER_BOUND('',#3750,.T.);
#3770=ADVANCED_FACE('',(#3760),#3690,.F.);
#3780=COLOUR_RGB('',0.560784339904785,0.588235318660736,
0.600000023841858);
#3790=FILL_AREA_STYLE_COLOUR('',#3780);
#3800=FILL_AREA_STYLE('',(#3790));
#3810=SURFACE_STYLE_FILL_AREA(#3800);
#3820=SURFACE_SIDE_STYLE('',(#3810));
#3830=SURFACE_STYLE_USAGE(.BOTH.,#3820);
#3840=PRESENTATION_STYLE_ASSIGNMENT((#3830));
#3850=CLOSED_SHELL('',(#460,#870,#1360,#1690,#2120,#2360,#2750,#2990,
#3190,#3380,#3570,#3770));
#3860=MANIFOLD_SOLID_BREP('',#3850);
#3870=CARTESIAN_POINT('',(0.,0.,0.));
#3880=DIRECTION('',(0.,0.,1.));
#3890=DIRECTION('',(1.,0.,0.));
#3900=AXIS2_PLACEMENT_3D('',#3870,#3880,#3890);
#3910=APPLICATION_CONTEXT(' ');
#3920=APPLICATION_PROTOCOL_DEFINITION(' ','automotive_design',1998,#3910
);
#3930=PRODUCT_CONTEXT('',#3910,'mechanical');
#3940=PRODUCT_DEFINITION_CONTEXT('part definition',#3910,'design');
#3950=PRODUCT('MPS-IH-GY-select','MPS-IH-GY-select','',(#3930));
#3960=PRODUCT_RELATED_PRODUCT_CATEGORY('part',' ',(#3950));
#3970=PRODUCT_DEFINITION_FORMATION_WITH_SPECIFIED_SOURCE('','',#3950,
.BOUGHT.);
#3980=PRODUCT_DEFINITION('',' ',#3970,#3940);
#3990=PRODUCT_DEFINITION_SHAPE('','',#3980);
#4000=DIMENSIONAL_EXPONENTS(1.,0.,0.,0.,0.,0.,0.);
#4010=DIMENSIONAL_EXPONENTS(0.,0.,0.,0.,0.,0.,0.);
#4020=DIMENSIONAL_EXPONENTS(0.,0.,0.,0.,0.,0.,0.);
#4030=(LENGTH_UNIT() NAMED_UNIT(*) SI_UNIT(.MILLI.,.METRE.));
#4040=(NAMED_UNIT(*) PLANE_ANGLE_UNIT() SI_UNIT($,.RADIAN.));
#4050=(NAMED_UNIT(*) SI_UNIT($,.STERADIAN.) SOLID_ANGLE_UNIT());
#4060=(GEOMETRIC_REPRESENTATION_CONTEXT(3) 
GLOBAL_UNCERTAINTY_ASSIGNED_CONTEXT((#4070)) 
GLOBAL_UNIT_ASSIGNED_CONTEXT((#4030,#4040,#4050)) REPRESENTATION_CONTEXT
('',''));
#4070=UNCERTAINTY_MEASURE_WITH_UNIT(LENGTH_MEASURE(1.E-6),#4030,
'distance_accuracy_value','maximum gap value');
#4080=ADVANCED_BREP_SHAPE_REPRESENTATION('',(#3900,#3860),#4060);
#4090=SHAPE_DEFINITION_REPRESENTATION(#3990,#4080);
#4100=COLOUR_RGB('',0.560784339904785,0.588235318660736,
0.600000023841858);
#4110=FILL_AREA_STYLE_COLOUR('',#4100);
#4120=FILL_AREA_STYLE('',(#4110));
#4130=SURFACE_STYLE_FILL_AREA(#4120);
#4140=SURFACE_SIDE_STYLE('',(#4130));
#4150=SURFACE_STYLE_USAGE(.BOTH.,#4140);
#4160=PRESENTATION_STYLE_ASSIGNMENT((#4150));
#4170=STYLED_ITEM('',(#4160),#3860);
#4180=OVER_RIDING_STYLED_ITEM('',(#530),#460,#4170);
#4190=OVER_RIDING_STYLED_ITEM('',(#940),#870,#4170);
#4200=OVER_RIDING_STYLED_ITEM('',(#1430),#1360,#4170);
#4210=OVER_RIDING_STYLED_ITEM('',(#1760),#1690,#4170);
#4220=OVER_RIDING_STYLED_ITEM('',(#2190),#2120,#4170);
#4230=OVER_RIDING_STYLED_ITEM('',(#2430),#2360,#4170);
#4240=OVER_RIDING_STYLED_ITEM('',(#2820),#2750,#4170);
#4250=OVER_RIDING_STYLED_ITEM('',(#3060),#2990,#4170);
#4260=OVER_RIDING_STYLED_ITEM('',(#3260),#3190,#4170);
#4270=OVER_RIDING_STYLED_ITEM('',(#3450),#3380,#4170);
#4280=OVER_RIDING_STYLED_ITEM('',(#3640),#3570,#4170);
#4290=OVER_RIDING_STYLED_ITEM('',(#3840),#3770,#4170);
#4300=DRAUGHTING_MODEL('',(#4170,#4180,#4190,#4200,#4210,#4220,#4230,
#4240,#4250,#4260,#4270,#4280,#4290),#4060);
#4310=CARTESIAN_POINT('',(-45.4058180398275,2.51249999999998,
-65.7970180907562));
#4320=DIRECTION('',(3.92058863470931E-17,-1.,1.53710152426118E-33));
#4330=DIRECTION('',(1.,3.92058863470931E-17,3.92058863470931E-17));
#4340=AXIS2_PLACEMENT_3D('',#4310,#4320,#4330);
#4350=ITEM_DEFINED_TRANSFORMATION('MPS-IH-GY-select','',#3900,#4340);
#4360=APPLICATION_CONTEXT(' ');
#4370=APPLICATION_PROTOCOL_DEFINITION(' ','automotive_design',1998,#4360
);
#4380=PRODUCT_CONTEXT('',#4360,'mechanical');
#4390=PRODUCT_DEFINITION_CONTEXT('part definition',#4360,'design');
#4400=PRODUCT('MPS-IH-GY-select','MPS-IH-GY-select','',(#4380));
#4410=PRODUCT_RELATED_PRODUCT_CATEGORY('part',' ',(#4400));
#4420=PRODUCT_DEFINITION_FORMATION_WITH_SPECIFIED_SOURCE('','',#4400,
.BOUGHT.);
#4430=PRODUCT_DEFINITION('',' ',#4420,#4390);
#4440=PRODUCT_DEFINITION_SHAPE('','',#4430);
#4450=DIMENSIONAL_EXPONENTS(1.,0.,0.,0.,0.,0.,0.);
#4460=DIMENSIONAL_EXPONENTS(0.,0.,0.,0.,0.,0.,0.);
#4470=DIMENSIONAL_EXPONENTS(0.,0.,0.,0.,0.,0.,0.);
#4480=(LENGTH_UNIT() NAMED_UNIT(*) SI_UNIT(.MILLI.,.METRE.));
#4490=(NAMED_UNIT(*) PLANE_ANGLE_UNIT() SI_UNIT($,.RADIAN.));
#4500=(NAMED_UNIT(*) SI_UNIT($,.STERADIAN.) SOLID_ANGLE_UNIT());
#4510=(GEOMETRIC_REPRESENTATION_CONTEXT(3) 
GLOBAL_UNCERTAINTY_ASSIGNED_CONTEXT((#4520)) 
GLOBAL_UNIT_ASSIGNED_CONTEXT((#4480,#4490,#4500)) REPRESENTATION_CONTEXT
('',''));
#4520=UNCERTAINTY_MEASURE_WITH_UNIT(LENGTH_MEASURE(1.E-6),#4480,
'distance_accuracy_value','maximum gap value');
#4530=SHAPE_REPRESENTATION('',(#3900,#4340),#4510);
#4540=SHAPE_DEFINITION_REPRESENTATION(#4440,#4530);
#4550=(REPRESENTATION_RELATIONSHIP('','',#4080,#4530) 
REPRESENTATION_RELATIONSHIP_WITH_TRANSFORMATION(#4350) 
SHAPE_REPRESENTATION_RELATIONSHIP());
#4560=NEXT_ASSEMBLY_USAGE_OCCURRENCE('1','','MPS-IH-GY-select',#4430,
#3980,'');
#4570=PRODUCT_DEFINITION_SHAPE('','',#4560);
#4580=CONTEXT_DEPENDENT_SHAPE_REPRESENTATION(#4550,#4570);
ENDSEC;
END-ISO-10303-21;
