ISO-10303-21;
HEADER;
FILE_DESCRIPTION(('Creo Elements/Direct Modeling STEP Export'),'2;1');
FILE_NAME(
'C:/temp/JobSpoolerServerData/JobServer Files/febc375e-ecf0-4e2d-8749-90
1fef15d140/work/output/model.stp','2020-02-12T14:33:06',(''),(''),
'Creo Elements/Direct Modeling STEP processor for AP214 (Solid Model)',
'Creo Elements/Direct Modeling 20.1A  29-Sep-2018 (C) Parametric Technol
ogy GmbH','');
FILE_SCHEMA(('AUTOMOTIVE_DESIGN { 1 0 10303 214 1 1 1 1 }'));
ENDSEC;
DATA;
#10=CARTESIAN_POINT('',(47.9183180398275,65.7970180907559,
-3.5527136788005E-15));
#20=DIRECTION('',(-8.56659547935519E-18,-1.,-1.38777878078145E-17));
#30=DIRECTION('',(0.543070146538079,-2.77555756156289E-17,
0.839687332248802));
#40=AXIS2_PLACEMENT_3D('',#10,#20,#30);
#50=CYLINDRICAL_SURFACE('',#40,2.0875);
#60=CARTESIAN_POINT('',(47.9183180398275,67.1970180907559,
1.77635683940025E-15));
#70=DIRECTION('',(-8.56659547935559E-18,-1.,-1.38777878078145E-17));
#80=DIRECTION('',(0.543070146538079,-2.77555756156289E-17,
0.839687332248802));
#90=AXIS2_PLACEMENT_3D('',#60,#70,#80);
#100=CIRCLE('',#90,2.0875);
#110=CARTESIAN_POINT('',(47.9183180398275,67.1970180907559,-2.0875));
#120=VERTEX_POINT('',#110);
#130=CARTESIAN_POINT('',(49.0519769707257,67.1970180907559,
1.75284730606937));
#140=VERTEX_POINT('',#130);
#150=EDGE_CURVE('',#120,#140,#100,.T.);
#160=ORIENTED_EDGE('',*,*,#150,.F.);
#170=CARTESIAN_POINT('',(49.0519769707257,65.7970180907559,
1.75284730606937));
#180=DIRECTION('',(-8.56659547935519E-18,-1.,-1.38777878078145E-17));
#190=VECTOR('',#180,1.);
#200=LINE('',#170,#190);
#210=CARTESIAN_POINT('',(49.0519769707257,65.7970180907559,
1.75284730606937));
#220=VERTEX_POINT('',#210);
#230=EDGE_CURVE('',#140,#220,#200,.T.);
#240=ORIENTED_EDGE('',*,*,#230,.F.);
#250=CARTESIAN_POINT('',(47.9183180398275,65.7970180907559,
1.77635683940025E-15));
#260=DIRECTION('',(-8.56659547935559E-18,-1.,-1.38777878078145E-17));
#270=DIRECTION('',(0.543070146538079,-2.77555756156289E-17,
0.839687332248802));
#280=AXIS2_PLACEMENT_3D('',#250,#260,#270);
#290=CIRCLE('',#280,2.0875);
#300=CARTESIAN_POINT('',(46.7846591089293,65.7970180907559,
-1.75284730606938));
#310=VERTEX_POINT('',#300);
#320=EDGE_CURVE('',#310,#220,#290,.T.);
#330=ORIENTED_EDGE('',*,*,#320,.T.);
#340=CARTESIAN_POINT('',(46.7846591089293,65.7970180907559,
-1.75284730606938));
#350=DIRECTION('',(-8.56659547935519E-18,-1.,-1.38777878078145E-17));
#360=VECTOR('',#350,1.);
#370=LINE('',#340,#360);
#380=CARTESIAN_POINT('',(46.7846591089293,67.1970180907559,
-1.75284730606938));
#390=VERTEX_POINT('',#380);
#400=EDGE_CURVE('',#390,#310,#370,.T.);
#410=ORIENTED_EDGE('',*,*,#400,.T.);
#420=EDGE_CURVE('',#390,#120,#100,.T.);
#430=ORIENTED_EDGE('',*,*,#420,.F.);
#440=EDGE_LOOP('',(#430,#410,#330,#240,#160));
#450=FACE_OUTER_BOUND('',#440,.T.);
#460=ADVANCED_FACE('',(#450),#50,.F.);
#470=COLOUR_RGB('',0.313725501298904,0.313725501298904,0.313725501298904
);
#480=FILL_AREA_STYLE_COLOUR('',#470);
#490=FILL_AREA_STYLE('',(#480));
#500=SURFACE_STYLE_FILL_AREA(#490);
#510=SURFACE_SIDE_STYLE('',(#500));
#520=SURFACE_STYLE_USAGE(.BOTH.,#510);
#530=PRESENTATION_STYLE_ASSIGNMENT((#520));
#540=CARTESIAN_POINT('',(47.9183180398275,96.0470204907559,
3.5527136788005E-15));
#550=DIRECTION('',(-8.56659547935559E-18,-1.,-1.38777878078145E-17));
#560=DIRECTION('',(0.543070146538079,-2.77555756156289E-17,
0.839687332248802));
#570=AXIS2_PLACEMENT_3D('',#540,#550,#560);
#580=CYLINDRICAL_SURFACE('',#570,1.5375);
#590=CARTESIAN_POINT('',(48.7532883901298,96.0470204907559,
1.29101927333253));
#600=DIRECTION('',(-8.56659547935558E-18,-1.,-1.38777878078145E-17));
#610=VECTOR('',#600,1.);
#620=LINE('',#590,#610);
#630=CARTESIAN_POINT('',(48.7532883901298,93.2970180907559,
1.29101927333253));
#640=VERTEX_POINT('',#630);
#650=CARTESIAN_POINT('',(48.7532883901298,70.4970180907559,
1.29101927333253));
#660=VERTEX_POINT('',#650);
#670=EDGE_CURVE('',#640,#660,#620,.T.);
#680=ORIENTED_EDGE('',*,*,#670,.F.);
#690=CARTESIAN_POINT('',(47.9183180398275,70.4970180907559,
1.77635683940025E-15));
#700=DIRECTION('',(-8.56659547935559E-18,-1.,-1.38777878078145E-17));
#710=DIRECTION('',(0.543070146538079,-2.77555756156289E-17,
0.839687332248802));
#720=AXIS2_PLACEMENT_3D('',#690,#700,#710);
#730=CIRCLE('',#720,1.5375);
#740=CARTESIAN_POINT('',(47.0833476895252,70.4970180907559,
-1.29101927333253));
#750=VERTEX_POINT('',#740);
#760=EDGE_CURVE('',#750,#660,#730,.T.);
#770=ORIENTED_EDGE('',*,*,#760,.T.);
#780=CARTESIAN_POINT('',(47.0833476895252,96.0470204907559,
-1.29101927333253));
#790=DIRECTION('',(-8.56659547935558E-18,-1.,-1.38777878078145E-17));
#800=VECTOR('',#790,1.);
#810=LINE('',#780,#800);
#820=CARTESIAN_POINT('',(47.0833476895252,93.2970180907559,
-1.29101927333253));
#830=VERTEX_POINT('',#820);
#840=EDGE_CURVE('',#830,#750,#810,.T.);
#850=ORIENTED_EDGE('',*,*,#840,.T.);
#860=CARTESIAN_POINT('',(47.9183180398275,93.2970180907559,
1.77635683940025E-15));
#870=DIRECTION('',(-8.56659547935559E-18,-1.,-1.38777878078145E-17));
#880=DIRECTION('',(0.543070146538079,-4.16333634234434E-17,
0.839687332248802));
#890=AXIS2_PLACEMENT_3D('',#860,#870,#880);
#900=CIRCLE('',#890,1.5375);
#910=EDGE_CURVE('',#830,#640,#900,.T.);
#920=ORIENTED_EDGE('',*,*,#910,.F.);
#930=EDGE_LOOP('',(#920,#850,#770,#680));
#940=FACE_OUTER_BOUND('',#930,.T.);
#950=ADVANCED_FACE('',(#940),#580,.F.);
#960=COLOUR_RGB('',0.313725501298904,0.313725501298904,0.313725501298904
);
#970=FILL_AREA_STYLE_COLOUR('',#960);
#980=FILL_AREA_STYLE('',(#970));
#990=SURFACE_STYLE_FILL_AREA(#980);
#1000=SURFACE_SIDE_STYLE('',(#990));
#1010=SURFACE_STYLE_USAGE(.BOTH.,#1000);
#1020=PRESENTATION_STYLE_ASSIGNMENT((#1010));
#1030=CARTESIAN_POINT('',(49.1017253572576,65.7970180907559,
0.421558042922788));
#1040=DIRECTION('',(8.41614533186055E-18,1.,1.7730044744175E-17));
#1050=DIRECTION('',(-0.942015775068737,1.38777878078145E-17,
-0.335568591381326));
#1060=AXIS2_PLACEMENT_3D('',#1030,#1040,#1050);
#1070=PLANE('',#1060);
#1080=CARTESIAN_POINT('',(46.4321457579376,65.7970180907559,
-1.46592912466537));
#1090=VERTEX_POINT('',#1080);
#1100=EDGE_CURVE('',#1090,#310,#290,.T.);
#1110=ORIENTED_EDGE('',*,*,#1100,.F.);
#1120=ORIENTED_EDGE('',*,*,#320,.F.);
#1130=EDGE_CURVE('',#220,#1090,#290,.T.);
#1140=ORIENTED_EDGE('',*,*,#1130,.F.);
#1150=EDGE_LOOP('',(#1140,#1120,#1110));
#1160=FACE_BOUND('',#1150,.T.);
#1170=CARTESIAN_POINT('',(47.9183180398275,65.7970180907559,0.));
#1180=DIRECTION('',(-8.56659547935559E-18,-1.,-1.38777878078145E-17));
#1190=DIRECTION('',(0.428822916016851,-4.16333634234434E-17,
0.903388569054759));
#1200=AXIS2_PLACEMENT_3D('',#1170,#1180,#1190);
#1210=CIRCLE('',#1200,2.5125);
#1220=CARTESIAN_POINT('',(46.2901544829126,65.7970180907559,
-1.91356726611168));
#1230=VERTEX_POINT('',#1220);
#1240=CARTESIAN_POINT('',(49.5464815967424,65.7970180907559,
1.91356726611167));
#1250=VERTEX_POINT('',#1240);
#1260=EDGE_CURVE('',#1230,#1250,#1210,.T.);
#1270=ORIENTED_EDGE('',*,*,#1260,.T.);
#1280=CARTESIAN_POINT('',(45.5632882673912,65.7970180907559,
0.875494729246674));
#1290=VERTEX_POINT('',#1280);
#1300=EDGE_CURVE('',#1290,#1230,#1210,.T.);
#1310=ORIENTED_EDGE('',*,*,#1300,.T.);
#1320=EDGE_CURVE('',#1250,#1290,#1210,.T.);
#1330=ORIENTED_EDGE('',*,*,#1320,.T.);
#1340=EDGE_LOOP('',(#1330,#1310,#1270));
#1350=FACE_OUTER_BOUND('',#1340,.T.);
#1360=ADVANCED_FACE('',(#1160,#1350),#1070,.F.);
#1370=COLOUR_RGB('',0.313725501298904,0.313725501298904,
0.313725501298904);
#1380=FILL_AREA_STYLE_COLOUR('',#1370);
#1390=FILL_AREA_STYLE('',(#1380));
#1400=SURFACE_STYLE_FILL_AREA(#1390);
#1410=SURFACE_SIDE_STYLE('',(#1400));
#1420=SURFACE_STYLE_USAGE(.BOTH.,#1410);
#1430=PRESENTATION_STYLE_ASSIGNMENT((#1420));
#1440=CARTESIAN_POINT('',(48.249722413532,67.1970180907559,
-0.91649023356061));
#1450=DIRECTION('',(-9.24672320589899E-18,-1.,-2.70743113729244E-17));
#1460=DIRECTION('',(0.543070146538079,-2.77555756156289E-17,
0.839687332248802));
#1470=AXIS2_PLACEMENT_3D('',#1440,#1450,#1460);
#1480=PLANE('',#1470);
#1490=CARTESIAN_POINT('',(47.9183180398275,67.1970180907559,
1.77635683940025E-15));
#1500=DIRECTION('',(-8.56659547935559E-18,-1.,-1.38777878078145E-17));
#1510=DIRECTION('',(0.543070146538079,-2.77555756156289E-17,
0.839687332248802));
#1520=AXIS2_PLACEMENT_3D('',#1490,#1500,#1510);
#1530=CIRCLE('',#1520,1.62);
#1540=CARTESIAN_POINT('',(48.7980916772192,67.1970180907559,
1.36029347824306));
#1550=VERTEX_POINT('',#1540);
#1560=CARTESIAN_POINT('',(47.0385444024358,67.1970180907559,
-1.36029347824306));
#1570=VERTEX_POINT('',#1560);
#1580=EDGE_CURVE('',#1550,#1570,#1530,.T.);
#1590=ORIENTED_EDGE('',*,*,#1580,.F.);
#1600=EDGE_CURVE('',#1570,#1550,#1530,.T.);
#1610=ORIENTED_EDGE('',*,*,#1600,.F.);
#1620=EDGE_LOOP('',(#1610,#1590));
#1630=FACE_BOUND('',#1620,.T.);
#1640=EDGE_CURVE('',#140,#390,#100,.T.);
#1650=ORIENTED_EDGE('',*,*,#1640,.T.);
#1660=ORIENTED_EDGE('',*,*,#150,.T.);
#1670=ORIENTED_EDGE('',*,*,#420,.T.);
#1680=EDGE_LOOP('',(#1670,#1660,#1650));
#1690=FACE_OUTER_BOUND('',#1680,.T.);
#1700=ADVANCED_FACE('',(#1630,#1690),#1480,.T.);
#1710=COLOUR_RGB('',0.313725501298904,0.313725501298904,
0.313725501298904);
#1720=FILL_AREA_STYLE_COLOUR('',#1710);
#1730=FILL_AREA_STYLE('',(#1720));
#1740=SURFACE_STYLE_FILL_AREA(#1730);
#1750=SURFACE_SIDE_STYLE('',(#1740));
#1760=SURFACE_STYLE_USAGE(.BOTH.,#1750);
#1770=PRESENTATION_STYLE_ASSIGNMENT((#1760));
#1780=CARTESIAN_POINT('',(47.9183180398275,65.7970180907559,
-1.77635683940025E-15));
#1790=DIRECTION('',(0.,-1.,-1.54256224859723E-17));
#1800=DIRECTION('',(0.64802529628455,-1.38777878078145E-17,
0.761618812382757));
#1810=AXIS2_PLACEMENT_3D('',#1780,#1790,#1800);
#1820=CONICAL_SURFACE('',#1810,2.5125,0.00727259905240371);
#1830=CARTESIAN_POINT('',(46.2901544829126,65.7970180907559,
-1.91356726611168));
#1840=DIRECTION('',(-0.00471278661167487,-0.999973554768071,
-0.00553889942688454));
#1850=VECTOR('',#1840,345.477886242828);
#1860=LINE('',#1830,#1850);
#1870=CARTESIAN_POINT('',(46.4197595421695,93.2970180907559,
-1.76124350363512));
#1880=VERTEX_POINT('',#1870);
#1890=EDGE_CURVE('',#1880,#1230,#1860,.T.);
#1900=ORIENTED_EDGE('',*,*,#1890,.F.);
#1910=ORIENTED_EDGE('',*,*,#1260,.F.);
#1920=CARTESIAN_POINT('',(49.5464815967424,65.7970180907559,
1.91356726611167));
#1930=DIRECTION('',(0.00471278661167487,-0.999973554768071,
0.0055388994268845));
#1940=VECTOR('',#1930,345.477886242828);
#1950=LINE('',#1920,#1940);
#1960=CARTESIAN_POINT('',(49.4168765374855,93.2970180907559,
1.76124350363512));
#1970=VERTEX_POINT('',#1960);
#1980=EDGE_CURVE('',#1970,#1250,#1950,.T.);
#1990=ORIENTED_EDGE('',*,*,#1980,.T.);
#2000=CARTESIAN_POINT('',(47.9183180398275,93.2970180907559,
4.66293670342566E-15));
#2010=DIRECTION('',(-8.56659547935559E-18,-1.,-1.38777878078144E-17));
#2020=DIRECTION('',(-0.335568591381325,-1.01984146600768E-17,
0.942015775068737));
#2030=AXIS2_PLACEMENT_3D('',#2000,#2010,#2020);
#2040=CIRCLE('',#2030,2.31249999999999);
#2050=CARTESIAN_POINT('',(49.2407280701638,93.2970180907559,
-1.89707352563521));
#2060=VERTEX_POINT('',#2050);
#2070=EDGE_CURVE('',#2060,#1970,#2040,.T.);
#2080=ORIENTED_EDGE('',*,*,#2070,.T.);
#2090=EDGE_CURVE('',#1880,#2060,#2040,.T.);
#2100=ORIENTED_EDGE('',*,*,#2090,.T.);
#2110=EDGE_LOOP('',(#2100,#2080,#1990,#1910,#1900));
#2120=FACE_OUTER_BOUND('',#2110,.T.);
#2130=ADVANCED_FACE('',(#2120),#1820,.T.);
#2140=COLOUR_RGB('',0.313725501298904,0.313725501298904,
0.313725501298904);
#2150=FILL_AREA_STYLE_COLOUR('',#2140);
#2160=FILL_AREA_STYLE('',(#2150));
#2170=SURFACE_STYLE_FILL_AREA(#2160);
#2180=SURFACE_SIDE_STYLE('',(#2170));
#2190=SURFACE_STYLE_USAGE(.BOTH.,#2180);
#2200=PRESENTATION_STYLE_ASSIGNMENT((#2190));
#2210=CARTESIAN_POINT('',(48.249722413532,70.4970180907559,
-0.91649023356061));
#2220=DIRECTION('',(-9.24672320589899E-18,-1.,-2.70743113729244E-17));
#2230=DIRECTION('',(0.543070146538079,-2.77555756156289E-17,
0.839687332248802));
#2240=AXIS2_PLACEMENT_3D('',#2210,#2220,#2230);
#2250=PLANE('',#2240);
#2260=EDGE_CURVE('',#660,#750,#730,.T.);
#2270=ORIENTED_EDGE('',*,*,#2260,.F.);
#2280=ORIENTED_EDGE('',*,*,#760,.F.);
#2290=EDGE_LOOP('',(#2280,#2270));
#2300=FACE_BOUND('',#2290,.T.);
#2310=CARTESIAN_POINT('',(47.9183180398275,70.4970180907559,
1.77635683940025E-15));
#2320=DIRECTION('',(-8.56659547935559E-18,-1.,-1.38777878078145E-17));
#2330=DIRECTION('',(0.543070146538079,-2.77555756156289E-17,
0.839687332248802));
#2340=AXIS2_PLACEMENT_3D('',#2310,#2320,#2330);
#2350=CIRCLE('',#2340,1.62);
#2360=CARTESIAN_POINT('',(48.7980916772192,70.4970180907559,
1.36029347824306));
#2370=VERTEX_POINT('',#2360);
#2380=CARTESIAN_POINT('',(47.0385444024358,70.4970180907559,
-1.36029347824306));
#2390=VERTEX_POINT('',#2380);
#2400=EDGE_CURVE('',#2370,#2390,#2350,.T.);
#2410=ORIENTED_EDGE('',*,*,#2400,.T.);
#2420=EDGE_CURVE('',#2390,#2370,#2350,.T.);
#2430=ORIENTED_EDGE('',*,*,#2420,.T.);
#2440=EDGE_LOOP('',(#2430,#2410));
#2450=FACE_OUTER_BOUND('',#2440,.T.);
#2460=ADVANCED_FACE('',(#2300,#2450),#2250,.T.);
#2470=COLOUR_RGB('',0.313725501298904,0.313725501298904,
0.313725501298904);
#2480=FILL_AREA_STYLE_COLOUR('',#2470);
#2490=FILL_AREA_STYLE('',(#2480));
#2500=SURFACE_STYLE_FILL_AREA(#2490);
#2510=SURFACE_SIDE_STYLE('',(#2500));
#2520=SURFACE_STYLE_USAGE(.BOTH.,#2510);
#2530=PRESENTATION_STYLE_ASSIGNMENT((#2520));
#2540=CARTESIAN_POINT('',(48.8699878982758,93.2970180907559,
0.656687553575443));
#2550=DIRECTION('',(1.49628317342487E-17,1.,2.71860007850765E-17));
#2560=DIRECTION('',(0.823065823522893,-2.77555756156289E-17,
0.567945992281468));
#2570=AXIS2_PLACEMENT_3D('',#2540,#2550,#2560);
#2580=PLANE('',#2570);
#2590=EDGE_CURVE('',#640,#830,#900,.T.);
#2600=ORIENTED_EDGE('',*,*,#2590,.T.);
#2610=ORIENTED_EDGE('',*,*,#910,.T.);
#2620=EDGE_LOOP('',(#2610,#2600));
#2630=FACE_BOUND('',#2620,.T.);
#2640=ORIENTED_EDGE('',*,*,#2070,.F.);
#2650=EDGE_CURVE('',#1970,#1880,#2040,.T.);
#2660=ORIENTED_EDGE('',*,*,#2650,.F.);
#2670=ORIENTED_EDGE('',*,*,#2090,.F.);
#2680=EDGE_LOOP('',(#2670,#2660,#2640));
#2690=FACE_OUTER_BOUND('',#2680,.T.);
#2700=ADVANCED_FACE('',(#2630,#2690),#2580,.T.);
#2710=COLOUR_RGB('',0.313725501298904,0.313725501298904,
0.313725501298904);
#2720=FILL_AREA_STYLE_COLOUR('',#2710);
#2730=FILL_AREA_STYLE('',(#2720));
#2740=SURFACE_STYLE_FILL_AREA(#2730);
#2750=SURFACE_SIDE_STYLE('',(#2740));
#2760=SURFACE_STYLE_USAGE(.BOTH.,#2750);
#2770=PRESENTATION_STYLE_ASSIGNMENT((#2760));
#2780=CARTESIAN_POINT('',(47.9183180398275,65.7970180907559,
1.77635683940025E-15));
#2790=DIRECTION('',(-8.56659547935559E-18,-1.,-1.38777878078145E-17));
#2800=DIRECTION('',(0.543070146538079,-2.77555756156289E-17,
0.839687332248802));
#2810=AXIS2_PLACEMENT_3D('',#2780,#2790,#2800);
#2820=CYLINDRICAL_SURFACE('',#2810,1.62);
#2830=CARTESIAN_POINT('',(47.0385444024358,65.7970180907559,
-1.36029347824306));
#2840=DIRECTION('',(-8.56659547935558E-18,-1.,-1.38777878078145E-17));
#2850=VECTOR('',#2840,1.);
#2860=LINE('',#2830,#2850);
#2870=EDGE_CURVE('',#2390,#1570,#2860,.T.);
#2880=ORIENTED_EDGE('',*,*,#2870,.T.);
#2890=ORIENTED_EDGE('',*,*,#2420,.F.);
#2900=CARTESIAN_POINT('',(48.7980916772192,65.7970180907559,
1.36029347824306));
#2910=DIRECTION('',(-8.56659547935558E-18,-1.,-1.38777878078145E-17));
#2920=VECTOR('',#2910,1.);
#2930=LINE('',#2900,#2920);
#2940=EDGE_CURVE('',#2370,#1550,#2930,.T.);
#2950=ORIENTED_EDGE('',*,*,#2940,.F.);
#2960=ORIENTED_EDGE('',*,*,#1600,.T.);
#2970=EDGE_LOOP('',(#2960,#2950,#2890,#2880));
#2980=FACE_OUTER_BOUND('',#2970,.T.);
#2990=ADVANCED_FACE('',(#2980),#2820,.F.);
#3000=COLOUR_RGB('',0.313725501298904,0.313725501298904,
0.313725501298904);
#3010=FILL_AREA_STYLE_COLOUR('',#3000);
#3020=FILL_AREA_STYLE('',(#3010));
#3030=SURFACE_STYLE_FILL_AREA(#3020);
#3040=SURFACE_SIDE_STYLE('',(#3030));
#3050=SURFACE_STYLE_USAGE(.BOTH.,#3040);
#3060=PRESENTATION_STYLE_ASSIGNMENT((#3050));
#3070=CARTESIAN_POINT('',(47.9183180398275,65.7970180907559,
-3.5527136788005E-15));
#3080=DIRECTION('',(-8.56659547935519E-18,-1.,-1.38777878078145E-17));
#3090=DIRECTION('',(0.543070146538079,-2.77555756156289E-17,
0.839687332248802));
#3100=AXIS2_PLACEMENT_3D('',#3070,#3080,#3090);
#3110=CYLINDRICAL_SURFACE('',#3100,2.0875);
#3120=ORIENTED_EDGE('',*,*,#230,.T.);
#3130=ORIENTED_EDGE('',*,*,#1640,.F.);
#3140=ORIENTED_EDGE('',*,*,#400,.F.);
#3150=ORIENTED_EDGE('',*,*,#1100,.T.);
#3160=ORIENTED_EDGE('',*,*,#1130,.T.);
#3170=EDGE_LOOP('',(#3160,#3150,#3140,#3130,#3120));
#3180=FACE_OUTER_BOUND('',#3170,.T.);
#3190=ADVANCED_FACE('',(#3180),#3110,.F.);
#3200=COLOUR_RGB('',0.313725501298904,0.313725501298904,
0.313725501298904);
#3210=FILL_AREA_STYLE_COLOUR('',#3200);
#3220=FILL_AREA_STYLE('',(#3210));
#3230=SURFACE_STYLE_FILL_AREA(#3220);
#3240=SURFACE_SIDE_STYLE('',(#3230));
#3250=SURFACE_STYLE_USAGE(.BOTH.,#3240);
#3260=PRESENTATION_STYLE_ASSIGNMENT((#3250));
#3270=CARTESIAN_POINT('',(47.9183180398275,65.7970180907559,
-1.77635683940025E-15));
#3280=DIRECTION('',(0.,-1.,-1.54256224859723E-17));
#3290=DIRECTION('',(0.64802529628455,-1.38777878078145E-17,
0.761618812382757));
#3300=AXIS2_PLACEMENT_3D('',#3270,#3280,#3290);
#3310=CONICAL_SURFACE('',#3300,2.5125,0.00727259905240371);
#3320=ORIENTED_EDGE('',*,*,#1300,.F.);
#3330=ORIENTED_EDGE('',*,*,#1890,.T.);
#3340=ORIENTED_EDGE('',*,*,#2650,.T.);
#3350=ORIENTED_EDGE('',*,*,#1980,.F.);
#3360=ORIENTED_EDGE('',*,*,#1320,.F.);
#3370=EDGE_LOOP('',(#3360,#3350,#3340,#3330,#3320));
#3380=FACE_OUTER_BOUND('',#3370,.T.);
#3390=ADVANCED_FACE('',(#3380),#3310,.T.);
#3400=COLOUR_RGB('',0.313725501298904,0.313725501298904,
0.313725501298904);
#3410=FILL_AREA_STYLE_COLOUR('',#3400);
#3420=FILL_AREA_STYLE('',(#3410));
#3430=SURFACE_STYLE_FILL_AREA(#3420);
#3440=SURFACE_SIDE_STYLE('',(#3430));
#3450=SURFACE_STYLE_USAGE(.BOTH.,#3440);
#3460=PRESENTATION_STYLE_ASSIGNMENT((#3450));
#3470=CARTESIAN_POINT('',(47.9183180398275,96.0470204907559,
3.5527136788005E-15));
#3480=DIRECTION('',(-8.56659547935559E-18,-1.,-1.38777878078145E-17));
#3490=DIRECTION('',(0.543070146538079,-2.77555756156289E-17,
0.839687332248802));
#3500=AXIS2_PLACEMENT_3D('',#3470,#3480,#3490);
#3510=CYLINDRICAL_SURFACE('',#3500,1.5375);
#3520=ORIENTED_EDGE('',*,*,#2260,.T.);
#3530=ORIENTED_EDGE('',*,*,#670,.T.);
#3540=ORIENTED_EDGE('',*,*,#2590,.F.);
#3550=ORIENTED_EDGE('',*,*,#840,.F.);
#3560=EDGE_LOOP('',(#3550,#3540,#3530,#3520));
#3570=FACE_OUTER_BOUND('',#3560,.T.);
#3580=ADVANCED_FACE('',(#3570),#3510,.F.);
#3590=COLOUR_RGB('',0.313725501298904,0.313725501298904,
0.313725501298904);
#3600=FILL_AREA_STYLE_COLOUR('',#3590);
#3610=FILL_AREA_STYLE('',(#3600));
#3620=SURFACE_STYLE_FILL_AREA(#3610);
#3630=SURFACE_SIDE_STYLE('',(#3620));
#3640=SURFACE_STYLE_USAGE(.BOTH.,#3630);
#3650=PRESENTATION_STYLE_ASSIGNMENT((#3640));
#3660=CARTESIAN_POINT('',(47.9183180398275,65.7970180907559,
1.77635683940025E-15));
#3670=DIRECTION('',(-8.56659547935559E-18,-1.,-1.38777878078145E-17));
#3680=DIRECTION('',(0.543070146538079,-2.77555756156289E-17,
0.839687332248802));
#3690=AXIS2_PLACEMENT_3D('',#3660,#3670,#3680);
#3700=CYLINDRICAL_SURFACE('',#3690,1.62);
#3710=ORIENTED_EDGE('',*,*,#2400,.F.);
#3720=ORIENTED_EDGE('',*,*,#2870,.F.);
#3730=ORIENTED_EDGE('',*,*,#1580,.T.);
#3740=ORIENTED_EDGE('',*,*,#2940,.T.);
#3750=EDGE_LOOP('',(#3740,#3730,#3720,#3710));
#3760=FACE_OUTER_BOUND('',#3750,.T.);
#3770=ADVANCED_FACE('',(#3760),#3700,.F.);
#3780=COLOUR_RGB('',0.313725501298904,0.313725501298904,
0.313725501298904);
#3790=FILL_AREA_STYLE_COLOUR('',#3780);
#3800=FILL_AREA_STYLE('',(#3790));
#3810=SURFACE_STYLE_FILL_AREA(#3800);
#3820=SURFACE_SIDE_STYLE('',(#3810));
#3830=SURFACE_STYLE_USAGE(.BOTH.,#3820);
#3840=PRESENTATION_STYLE_ASSIGNMENT((#3830));
#3850=CLOSED_SHELL('',(#460,#950,#1360,#1700,#2130,#2460,#2700,#2990,
#3190,#3390,#3580,#3770));
#3860=MANIFOLD_SOLID_BREP('',#3850);
#3870=CARTESIAN_POINT('',(0.,0.,0.));
#3880=DIRECTION('',(0.,0.,1.));
#3890=DIRECTION('',(1.,0.,0.));
#3900=AXIS2_PLACEMENT_3D('',#3870,#3880,#3890);
#3910=APPLICATION_CONTEXT(' ');
#3920=APPLICATION_PROTOCOL_DEFINITION(' ','automotive_design',1998,#3910
);
#3930=PRODUCT_CONTEXT('',#3910,'mechanical');
#3940=PRODUCT_DEFINITION_CONTEXT('part definition',#3910,'design');
#3950=PRODUCT('MPS_IH_BK-select','MPS_IH_BK-select','',(#3930));
#3960=PRODUCT_RELATED_PRODUCT_CATEGORY('part',' ',(#3950));
#3970=PRODUCT_DEFINITION_FORMATION_WITH_SPECIFIED_SOURCE('','',#3950,
.BOUGHT.);
#3980=PRODUCT_DEFINITION('',' ',#3970,#3940);
#3990=PRODUCT_DEFINITION_SHAPE('','',#3980);
#4000=DIMENSIONAL_EXPONENTS(1.,0.,0.,0.,0.,0.,0.);
#4010=DIMENSIONAL_EXPONENTS(0.,0.,0.,0.,0.,0.,0.);
#4020=DIMENSIONAL_EXPONENTS(0.,0.,0.,0.,0.,0.,0.);
#4030=(LENGTH_UNIT() NAMED_UNIT(*) SI_UNIT(.MILLI.,.METRE.));
#4040=(NAMED_UNIT(*) PLANE_ANGLE_UNIT() SI_UNIT($,.RADIAN.));
#4050=(NAMED_UNIT(*) SI_UNIT($,.STERADIAN.) SOLID_ANGLE_UNIT());
#4060=(GEOMETRIC_REPRESENTATION_CONTEXT(3) 
GLOBAL_UNCERTAINTY_ASSIGNED_CONTEXT((#4070)) 
GLOBAL_UNIT_ASSIGNED_CONTEXT((#4030,#4040,#4050)) REPRESENTATION_CONTEXT
('',''));
#4070=UNCERTAINTY_MEASURE_WITH_UNIT(LENGTH_MEASURE(1.E-6),#4030,
'distance_accuracy_value','maximum gap value');
#4080=ADVANCED_BREP_SHAPE_REPRESENTATION('',(#3900,#3860),#4060);
#4090=SHAPE_DEFINITION_REPRESENTATION(#3990,#4080);
#4100=COLOUR_RGB('',0.313725501298904,0.313725501298904,
0.313725501298904);
#4110=FILL_AREA_STYLE_COLOUR('',#4100);
#4120=FILL_AREA_STYLE('',(#4110));
#4130=SURFACE_STYLE_FILL_AREA(#4120);
#4140=SURFACE_SIDE_STYLE('',(#4130));
#4150=SURFACE_STYLE_USAGE(.BOTH.,#4140);
#4160=PRESENTATION_STYLE_ASSIGNMENT((#4150));
#4170=STYLED_ITEM('',(#4160),#3860);
#4180=OVER_RIDING_STYLED_ITEM('',(#530),#460,#4170);
#4190=OVER_RIDING_STYLED_ITEM('',(#1020),#950,#4170);
#4200=OVER_RIDING_STYLED_ITEM('',(#1430),#1360,#4170);
#4210=OVER_RIDING_STYLED_ITEM('',(#1770),#1700,#4170);
#4220=OVER_RIDING_STYLED_ITEM('',(#2200),#2130,#4170);
#4230=OVER_RIDING_STYLED_ITEM('',(#2530),#2460,#4170);
#4240=OVER_RIDING_STYLED_ITEM('',(#2770),#2700,#4170);
#4250=OVER_RIDING_STYLED_ITEM('',(#3060),#2990,#4170);
#4260=OVER_RIDING_STYLED_ITEM('',(#3260),#3190,#4170);
#4270=OVER_RIDING_STYLED_ITEM('',(#3460),#3390,#4170);
#4280=OVER_RIDING_STYLED_ITEM('',(#3650),#3580,#4170);
#4290=OVER_RIDING_STYLED_ITEM('',(#3840),#3770,#4170);
#4300=DRAUGHTING_MODEL('',(#4170,#4180,#4190,#4200,#4210,#4220,#4230,
#4240,#4250,#4260,#4270,#4280,#4290),#4060);
#4310=CARTESIAN_POINT('',(-23.5105079997475,-37.7239046407123,
-65.7970180907562));
#4320=DIRECTION('',(0.839687332248801,-0.543070146538081,
6.16852350042629E-17));
#4330=DIRECTION('',(0.543070146538081,0.839687332248801,
6.84044378993943E-18));
#4340=AXIS2_PLACEMENT_3D('',#4310,#4320,#4330);
#4350=ITEM_DEFINED_TRANSFORMATION('MPS_IH_BK-select','',#3900,#4340);
#4360=APPLICATION_CONTEXT(' ');
#4370=APPLICATION_PROTOCOL_DEFINITION(' ','automotive_design',1998,#4360
);
#4380=PRODUCT_CONTEXT('',#4360,'mechanical');
#4390=PRODUCT_DEFINITION_CONTEXT('part definition',#4360,'design');
#4400=PRODUCT('MPS_IH_BK-select','MPS_IH_BK-select','',(#4380));
#4410=PRODUCT_RELATED_PRODUCT_CATEGORY('part',' ',(#4400));
#4420=PRODUCT_DEFINITION_FORMATION_WITH_SPECIFIED_SOURCE('','',#4400,
.BOUGHT.);
#4430=PRODUCT_DEFINITION('',' ',#4420,#4390);
#4440=PRODUCT_DEFINITION_SHAPE('','',#4430);
#4450=DIMENSIONAL_EXPONENTS(1.,0.,0.,0.,0.,0.,0.);
#4460=DIMENSIONAL_EXPONENTS(0.,0.,0.,0.,0.,0.,0.);
#4470=DIMENSIONAL_EXPONENTS(0.,0.,0.,0.,0.,0.,0.);
#4480=(LENGTH_UNIT() NAMED_UNIT(*) SI_UNIT(.MILLI.,.METRE.));
#4490=(NAMED_UNIT(*) PLANE_ANGLE_UNIT() SI_UNIT($,.RADIAN.));
#4500=(NAMED_UNIT(*) SI_UNIT($,.STERADIAN.) SOLID_ANGLE_UNIT());
#4510=(GEOMETRIC_REPRESENTATION_CONTEXT(3) 
GLOBAL_UNCERTAINTY_ASSIGNED_CONTEXT((#4520)) 
GLOBAL_UNIT_ASSIGNED_CONTEXT((#4480,#4490,#4500)) REPRESENTATION_CONTEXT
('',''));
#4520=UNCERTAINTY_MEASURE_WITH_UNIT(LENGTH_MEASURE(1.E-6),#4480,
'distance_accuracy_value','maximum gap value');
#4530=SHAPE_REPRESENTATION('',(#3900,#4340),#4510);
#4540=SHAPE_DEFINITION_REPRESENTATION(#4440,#4530);
#4550=(REPRESENTATION_RELATIONSHIP('','',#4080,#4530) 
REPRESENTATION_RELATIONSHIP_WITH_TRANSFORMATION(#4350) 
SHAPE_REPRESENTATION_RELATIONSHIP());
#4560=NEXT_ASSEMBLY_USAGE_OCCURRENCE('1','','MPS_IH_BK-select',#4430,
#3980,'');
#4570=PRODUCT_DEFINITION_SHAPE('','',#4560);
#4580=CONTEXT_DEPENDENT_SHAPE_REPRESENTATION(#4550,#4570);
ENDSEC;
END-ISO-10303-21;
