ISO-10303-21;
HEADER;
FILE_DESCRIPTION(('Creo Elements/Direct Modeling STEP Export'),'2;1');
FILE_NAME(
'C:/temp/JobSpoolerServerData/JobServer Files/6c1e8e81-c516-4c47-9fe0-01
de86fb05b5/work/output/model.stp','2019-01-24T20:51:46',(''),(''),
'Creo Elements/Direct Modeling STEP processor for AP214 (Solid Model)',
'Creo Elements/Direct Modeling 20.1A  29-Sep-2018 (C) Parametric Technol
ogy GmbH','');
FILE_SCHEMA(('AUTOMOTIVE_DESIGN { 1 0 10303 214 1 1 1 1 }'));
ENDSEC;
DATA;
#10=CARTESIAN_POINT('',(0.,0.,12.));
#20=DIRECTION('',(0.,0.,1.));
#30=DIRECTION('',(1.,0.,0.));
#40=AXIS2_PLACEMENT_3D('',#10,#20,#30);
#50=PLANE('',#40);
#60=CARTESIAN_POINT('',(-148.879496491185,0.,12.));
#70=DIRECTION('',(0.258819045103513,0.965925826288803,0.));
#80=VECTOR('',#70,1.);
#90=LINE('',#60,#80);
#100=CARTESIAN_POINT('',(-181.936213126048,-123.36934601221,12.));
#110=VERTEX_POINT('',#100);
#120=CARTESIAN_POINT('',(-181.105570629508,-120.26934601221,12.));
#130=VERTEX_POINT('',#120);
#140=EDGE_CURVE('',#110,#130,#90,.T.);
#150=ORIENTED_EDGE('',*,*,#140,.T.);
#160=CARTESIAN_POINT('',(0.,-123.36934601221,12.));
#170=DIRECTION('',(1.,0.,0.));
#180=VECTOR('',#170,1.);
#190=LINE('',#160,#180);
#200=CARTESIAN_POINT('',(-182.729306489986,-123.36934601221,12.));
#210=VERTEX_POINT('',#200);
#220=EDGE_CURVE('',#210,#110,#190,.T.);
#230=ORIENTED_EDGE('',*,*,#220,.T.);
#240=CARTESIAN_POINT('',(-182.729306489986,-122.86934601221,12.));
#250=DIRECTION('',(0.,0.,1.));
#260=DIRECTION('',(1.,0.,0.));
#270=AXIS2_PLACEMENT_3D('',#240,#250,#260);
#280=CIRCLE('',#270,0.5);
#290=CARTESIAN_POINT('',(-182.729306489986,-122.36934601221,12.));
#300=VERTEX_POINT('',#290);
#310=EDGE_CURVE('',#300,#210,#280,.T.);
#320=ORIENTED_EDGE('',*,*,#310,.T.);
#330=CARTESIAN_POINT('',(0.,-122.36934601221,12.));
#340=DIRECTION('',(1.,0.,0.));
#350=VECTOR('',#340,1.);
#360=LINE('',#330,#350);
#370=CARTESIAN_POINT('',(-182.392957259906,-122.36934601221,12.));
#380=VERTEX_POINT('',#370);
#390=EDGE_CURVE('',#300,#380,#360,.T.);
#400=ORIENTED_EDGE('',*,*,#390,.F.);
#410=CARTESIAN_POINT('',(-149.604189817298,0.,12.));
#420=DIRECTION('',(-0.258819045104813,-0.965925826288454,0.));
#430=VECTOR('',#420,1.);
#440=LINE('',#410,#430);
#450=CARTESIAN_POINT('',(-181.830263955795,-120.26934601221,12.));
#460=VERTEX_POINT('',#450);
#470=EDGE_CURVE('',#460,#380,#440,.T.);
#480=ORIENTED_EDGE('',*,*,#470,.T.);
#490=CARTESIAN_POINT('',(0.,-120.26934601221,12.));
#500=DIRECTION('',(1.,0.,0.));
#510=VECTOR('',#500,1.);
#520=LINE('',#490,#510);
#530=CARTESIAN_POINT('',(-185.140909030364,-120.26934601221,12.));
#540=VERTEX_POINT('',#530);
#550=EDGE_CURVE('',#540,#460,#520,.T.);
#560=ORIENTED_EDGE('',*,*,#550,.T.);
#570=CARTESIAN_POINT('',(-185.140909030364,0.,12.));
#580=DIRECTION('',(0.,-1.,0.));
#590=VECTOR('',#580,1.);
#600=LINE('',#570,#590);
#610=CARTESIAN_POINT('',(-185.140909030364,-119.16934601221,12.));
#620=VERTEX_POINT('',#610);
#630=EDGE_CURVE('',#620,#540,#600,.T.);
#640=ORIENTED_EDGE('',*,*,#630,.T.);
#650=CARTESIAN_POINT('',(0.,-119.16934601221,12.));
#660=DIRECTION('',(-1.,0.,0.));
#670=VECTOR('',#660,1.);
#680=LINE('',#650,#670);
#690=CARTESIAN_POINT('',(-174.640909030364,-119.16934601221,12.));
#700=VERTEX_POINT('',#690);
#710=EDGE_CURVE('',#700,#620,#680,.T.);
#720=ORIENTED_EDGE('',*,*,#710,.T.);
#730=CARTESIAN_POINT('',(-174.640909030364,0.,12.));
#740=DIRECTION('',(0.,1.,0.));
#750=VECTOR('',#740,1.);
#760=LINE('',#730,#750);
#770=CARTESIAN_POINT('',(-174.640909030364,-120.26934601221,12.));
#780=VERTEX_POINT('',#770);
#790=EDGE_CURVE('',#780,#700,#760,.T.);
#800=ORIENTED_EDGE('',*,*,#790,.T.);
#810=CARTESIAN_POINT('',(0.,-120.26934601221,12.));
#820=DIRECTION('',(1.,0.,0.));
#830=VECTOR('',#820,1.);
#840=LINE('',#810,#830);
#850=CARTESIAN_POINT('',(-177.964951564555,-120.26934601221,12.));
#860=VERTEX_POINT('',#850);
#870=EDGE_CURVE('',#860,#780,#840,.T.);
#880=ORIENTED_EDGE('',*,*,#870,.T.);
#890=CARTESIAN_POINT('',(-210.191025703088,0.,12.));
#900=DIRECTION('',(0.258819045105081,-0.965925826288382,0.));
#910=VECTOR('',#900,1.);
#920=LINE('',#890,#910);
#930=CARTESIAN_POINT('',(-177.402258260444,-122.36934601221,12.));
#940=VERTEX_POINT('',#930);
#950=EDGE_CURVE('',#860,#940,#920,.T.);
#960=ORIENTED_EDGE('',*,*,#950,.F.);
#970=CARTESIAN_POINT('',(0.,-122.36934601221,12.));
#980=DIRECTION('',(1.,0.,0.));
#990=VECTOR('',#980,1.);
#1000=LINE('',#970,#990);
#1010=CARTESIAN_POINT('',(-177.079306489986,-122.36934601221,12.));
#1020=VERTEX_POINT('',#1010);
#1030=EDGE_CURVE('',#940,#1020,#1000,.T.);
#1040=ORIENTED_EDGE('',*,*,#1030,.F.);
#1050=CARTESIAN_POINT('',(-177.079306489986,-122.86934601221,12.));
#1060=DIRECTION('',(0.,0.,1.));
#1070=DIRECTION('',(1.,0.,0.));
#1080=AXIS2_PLACEMENT_3D('',#1050,#1060,#1070);
#1090=CIRCLE('',#1080,0.500000000000199);
#1100=CARTESIAN_POINT('',(-177.079306489986,-123.36934601221,12.));
#1110=VERTEX_POINT('',#1100);
#1120=EDGE_CURVE('',#1110,#1020,#1090,.T.);
#1130=ORIENTED_EDGE('',*,*,#1120,.T.);
#1140=CARTESIAN_POINT('',(0.,-123.36934601221,12.));
#1150=DIRECTION('',(1.,0.,0.));
#1160=VECTOR('',#1150,1.);
#1170=LINE('',#1140,#1160);
#1180=CARTESIAN_POINT('',(-177.845604934679,-123.36934601221,12.));
#1190=VERTEX_POINT('',#1180);
#1200=EDGE_CURVE('',#1190,#1110,#1170,.T.);
#1210=ORIENTED_EDGE('',*,*,#1200,.T.);
#1220=CARTESIAN_POINT('',(-210.902321569607,0.,12.));
#1230=DIRECTION('',(0.258819045103983,-0.965925826288677,0.));
#1240=VECTOR('',#1230,1.);
#1250=LINE('',#1220,#1240);
#1260=CARTESIAN_POINT('',(-178.676247431221,-120.26934601221,12.));
#1270=VERTEX_POINT('',#1260);
#1280=EDGE_CURVE('',#1270,#1190,#1250,.T.);
#1290=ORIENTED_EDGE('',*,*,#1280,.T.);
#1300=CARTESIAN_POINT('',(0.,-120.26934601221,12.));
#1310=DIRECTION('',(1.,0.,0.));
#1320=VECTOR('',#1310,1.);
#1330=LINE('',#1300,#1320);
#1340=EDGE_CURVE('',#130,#1270,#1330,.T.);
#1350=ORIENTED_EDGE('',*,*,#1340,.T.);
#1360=EDGE_LOOP('',(#1350,#1290,#1210,#1130,#1040,#960,#880,#800,#720,
#640,#560,#480,#400,#320,#230,#150));
#1370=FACE_OUTER_BOUND('',#1360,.T.);
#1380=ADVANCED_FACE('',(#1370),#50,.T.);
#1390=CARTESIAN_POINT('',(0.0133974596218138,0.,3.85));
#1400=DIRECTION('',(0.,0.,1.));
#1410=DIRECTION('',(1.,0.,0.));
#1420=AXIS2_PLACEMENT_3D('',#1390,#1400,#1410);
#1430=PLANE('',#1420);
#1440=CARTESIAN_POINT('',(-174.640909030364,0.,3.85));
#1450=DIRECTION('',(0.,-1.,0.));
#1460=VECTOR('',#1450,1.);
#1470=LINE('',#1440,#1460);
#1480=CARTESIAN_POINT('',(-174.640909030364,-119.16934601221,3.85));
#1490=VERTEX_POINT('',#1480);
#1500=CARTESIAN_POINT('',(-174.640909030364,-120.26934601221,3.85));
#1510=VERTEX_POINT('',#1500);
#1520=EDGE_CURVE('',#1490,#1510,#1470,.T.);
#1530=ORIENTED_EDGE('',*,*,#1520,.T.);
#1540=CARTESIAN_POINT('',(0.,-119.16934601221,3.85));
#1550=DIRECTION('',(1.,0.,0.));
#1560=VECTOR('',#1550,1.);
#1570=LINE('',#1540,#1560);
#1580=CARTESIAN_POINT('',(-185.140909030364,-119.16934601221,3.85));
#1590=VERTEX_POINT('',#1580);
#1600=EDGE_CURVE('',#1590,#1490,#1570,.T.);
#1610=ORIENTED_EDGE('',*,*,#1600,.T.);
#1620=CARTESIAN_POINT('',(-185.140909030364,0.,3.85));
#1630=DIRECTION('',(0.,1.,0.));
#1640=VECTOR('',#1630,1.);
#1650=LINE('',#1620,#1640);
#1660=CARTESIAN_POINT('',(-185.140909030364,-120.26934601221,3.85));
#1670=VERTEX_POINT('',#1660);
#1680=EDGE_CURVE('',#1670,#1590,#1650,.T.);
#1690=ORIENTED_EDGE('',*,*,#1680,.T.);
#1700=CARTESIAN_POINT('',(0.,-120.26934601221,3.85));
#1710=DIRECTION('',(-1.,0.,0.));
#1720=VECTOR('',#1710,1.);
#1730=LINE('',#1700,#1720);
#1740=CARTESIAN_POINT('',(-181.830263955795,-120.26934601221,3.85));
#1750=VERTEX_POINT('',#1740);
#1760=EDGE_CURVE('',#1750,#1670,#1730,.T.);
#1770=ORIENTED_EDGE('',*,*,#1760,.T.);
#1780=CARTESIAN_POINT('',(-149.604189817298,0.,3.85));
#1790=DIRECTION('',(0.258819045104813,0.965925826288454,0.));
#1800=VECTOR('',#1790,1.);
#1810=LINE('',#1780,#1800);
#1820=CARTESIAN_POINT('',(-182.392957259906,-122.36934601221,3.85));
#1830=VERTEX_POINT('',#1820);
#1840=EDGE_CURVE('',#1830,#1750,#1810,.T.);
#1850=ORIENTED_EDGE('',*,*,#1840,.T.);
#1860=CARTESIAN_POINT('',(0.,-122.36934601221,3.85));
#1870=DIRECTION('',(1.,0.,0.));
#1880=VECTOR('',#1870,1.);
#1890=LINE('',#1860,#1880);
#1900=CARTESIAN_POINT('',(-182.729306489986,-122.36934601221,3.85));
#1910=VERTEX_POINT('',#1900);
#1920=EDGE_CURVE('',#1910,#1830,#1890,.T.);
#1930=ORIENTED_EDGE('',*,*,#1920,.T.);
#1940=CARTESIAN_POINT('',(-182.729306489986,-122.86934601221,3.85));
#1950=DIRECTION('',(0.,0.,1.));
#1960=DIRECTION('',(1.,0.,0.));
#1970=AXIS2_PLACEMENT_3D('',#1940,#1950,#1960);
#1980=CIRCLE('',#1970,0.5);
#1990=CARTESIAN_POINT('',(-182.729306489986,-123.36934601221,3.85));
#2000=VERTEX_POINT('',#1990);
#2010=EDGE_CURVE('',#1910,#2000,#1980,.T.);
#2020=ORIENTED_EDGE('',*,*,#2010,.F.);
#2030=CARTESIAN_POINT('',(0.,-123.36934601221,3.85));
#2040=DIRECTION('',(-1.,0.,0.));
#2050=VECTOR('',#2040,1.);
#2060=LINE('',#2030,#2050);
#2070=CARTESIAN_POINT('',(-181.936213126048,-123.36934601221,3.85));
#2080=VERTEX_POINT('',#2070);
#2090=EDGE_CURVE('',#2080,#2000,#2060,.T.);
#2100=ORIENTED_EDGE('',*,*,#2090,.T.);
#2110=CARTESIAN_POINT('',(-148.879496491185,0.,3.85));
#2120=DIRECTION('',(-0.258819045103513,-0.965925826288803,0.));
#2130=VECTOR('',#2120,1.);
#2140=LINE('',#2110,#2130);
#2150=CARTESIAN_POINT('',(-181.105570629508,-120.26934601221,3.85));
#2160=VERTEX_POINT('',#2150);
#2170=EDGE_CURVE('',#2160,#2080,#2140,.T.);
#2180=ORIENTED_EDGE('',*,*,#2170,.T.);
#2190=CARTESIAN_POINT('',(0.,-120.26934601221,3.85));
#2200=DIRECTION('',(-1.,0.,0.));
#2210=VECTOR('',#2200,1.);
#2220=LINE('',#2190,#2210);
#2230=CARTESIAN_POINT('',(-178.676247431221,-120.26934601221,3.85));
#2240=VERTEX_POINT('',#2230);
#2250=EDGE_CURVE('',#2240,#2160,#2220,.T.);
#2260=ORIENTED_EDGE('',*,*,#2250,.T.);
#2270=CARTESIAN_POINT('',(-210.902321569607,0.,3.85));
#2280=DIRECTION('',(0.258819045103983,-0.965925826288677,0.));
#2290=VECTOR('',#2280,1.);
#2300=LINE('',#2270,#2290);
#2310=CARTESIAN_POINT('',(-177.845604934679,-123.36934601221,3.85));
#2320=VERTEX_POINT('',#2310);
#2330=EDGE_CURVE('',#2240,#2320,#2300,.T.);
#2340=ORIENTED_EDGE('',*,*,#2330,.F.);
#2350=CARTESIAN_POINT('',(0.,-123.36934601221,3.85));
#2360=DIRECTION('',(-1.,0.,0.));
#2370=VECTOR('',#2360,1.);
#2380=LINE('',#2350,#2370);
#2390=CARTESIAN_POINT('',(-177.079306489986,-123.36934601221,3.85));
#2400=VERTEX_POINT('',#2390);
#2410=EDGE_CURVE('',#2400,#2320,#2380,.T.);
#2420=ORIENTED_EDGE('',*,*,#2410,.T.);
#2430=CARTESIAN_POINT('',(-177.079306489986,-122.86934601221,3.85));
#2440=DIRECTION('',(0.,0.,1.));
#2450=DIRECTION('',(1.,0.,0.));
#2460=AXIS2_PLACEMENT_3D('',#2430,#2440,#2450);
#2470=CIRCLE('',#2460,0.5);
#2480=CARTESIAN_POINT('',(-177.079306489986,-122.36934601221,3.85));
#2490=VERTEX_POINT('',#2480);
#2500=EDGE_CURVE('',#2400,#2490,#2470,.T.);
#2510=ORIENTED_EDGE('',*,*,#2500,.F.);
#2520=CARTESIAN_POINT('',(0.,-122.36934601221,3.85));
#2530=DIRECTION('',(1.,0.,0.));
#2540=VECTOR('',#2530,1.);
#2550=LINE('',#2520,#2540);
#2560=CARTESIAN_POINT('',(-177.402258260444,-122.36934601221,3.85));
#2570=VERTEX_POINT('',#2560);
#2580=EDGE_CURVE('',#2570,#2490,#2550,.T.);
#2590=ORIENTED_EDGE('',*,*,#2580,.T.);
#2600=CARTESIAN_POINT('',(-210.191025703088,0.,3.85));
#2610=DIRECTION('',(0.258819045105081,-0.965925826288382,0.));
#2620=VECTOR('',#2610,1.);
#2630=LINE('',#2600,#2620);
#2640=CARTESIAN_POINT('',(-177.964951564555,-120.26934601221,3.85));
#2650=VERTEX_POINT('',#2640);
#2660=EDGE_CURVE('',#2650,#2570,#2630,.T.);
#2670=ORIENTED_EDGE('',*,*,#2660,.T.);
#2680=CARTESIAN_POINT('',(0.,-120.26934601221,3.85));
#2690=DIRECTION('',(-1.,0.,0.));
#2700=VECTOR('',#2690,1.);
#2710=LINE('',#2680,#2700);
#2720=EDGE_CURVE('',#1510,#2650,#2710,.T.);
#2730=ORIENTED_EDGE('',*,*,#2720,.T.);
#2740=EDGE_LOOP('',(#2730,#2670,#2590,#2510,#2420,#2340,#2260,#2180,
#2100,#2020,#1930,#1850,#1770,#1690,#1610,#1530));
#2750=FACE_OUTER_BOUND('',#2740,.T.);
#2760=ADVANCED_FACE('',(#2750),#1430,.F.);
#2770=CARTESIAN_POINT('',(-182.729306489986,-122.36934601221,0.));
#2780=DIRECTION('',(-0.,1.,0.));
#2790=DIRECTION('',(1.,0.,0.));
#2800=AXIS2_PLACEMENT_3D('',#2770,#2780,#2790);
#2810=PLANE('',#2800);
#2820=CARTESIAN_POINT('',(-182.392957259906,-122.36934601221,0.));
#2830=DIRECTION('',(0.,0.,1.));
#2840=VECTOR('',#2830,1.);
#2850=LINE('',#2820,#2840);
#2860=EDGE_CURVE('',#1830,#380,#2850,.T.);
#2870=ORIENTED_EDGE('',*,*,#2860,.F.);
#2880=ORIENTED_EDGE('',*,*,#390,.T.);
#2890=CARTESIAN_POINT('',(-182.729306489986,-122.36934601221,0.));
#2900=DIRECTION('',(0.,0.,1.));
#2910=VECTOR('',#2900,1.);
#2920=LINE('',#2890,#2910);
#2930=EDGE_CURVE('',#1910,#300,#2920,.T.);
#2940=ORIENTED_EDGE('',*,*,#2930,.T.);
#2950=ORIENTED_EDGE('',*,*,#1920,.F.);
#2960=EDGE_LOOP('',(#2950,#2940,#2880,#2870));
#2970=FACE_OUTER_BOUND('',#2960,.T.);
#2980=ADVANCED_FACE('',(#2970),#2810,.T.);
#2990=CARTESIAN_POINT('',(-177.079306489986,-122.86934601221,0.));
#3000=DIRECTION('',(0.,0.,1.));
#3010=DIRECTION('',(1.,0.,0.));
#3020=AXIS2_PLACEMENT_3D('',#2990,#3000,#3010);
#3030=CYLINDRICAL_SURFACE('',#3020,0.5);
#3040=CARTESIAN_POINT('',(-177.079306489986,-123.36934601221,0.));
#3050=DIRECTION('',(0.,0.,1.));
#3060=VECTOR('',#3050,1.);
#3070=LINE('',#3040,#3060);
#3080=EDGE_CURVE('',#2400,#1110,#3070,.T.);
#3090=ORIENTED_EDGE('',*,*,#3080,.F.);
#3100=ORIENTED_EDGE('',*,*,#1120,.F.);
#3110=CARTESIAN_POINT('',(-177.079306489986,-122.36934601221,0.));
#3120=DIRECTION('',(0.,0.,1.));
#3130=VECTOR('',#3120,1.);
#3140=LINE('',#3110,#3130);
#3150=EDGE_CURVE('',#2490,#1020,#3140,.T.);
#3160=ORIENTED_EDGE('',*,*,#3150,.T.);
#3170=ORIENTED_EDGE('',*,*,#2500,.T.);
#3180=EDGE_LOOP('',(#3170,#3160,#3100,#3090));
#3190=FACE_OUTER_BOUND('',#3180,.T.);
#3200=ADVANCED_FACE('',(#3190),#3030,.T.);
#3210=CARTESIAN_POINT('',(-182.104306489987,-120.26934601221,0.));
#3220=DIRECTION('',(-0.,-1.,-0.));
#3230=DIRECTION('',(-1.,0.,0.));
#3240=AXIS2_PLACEMENT_3D('',#3210,#3220,#3230);
#3250=PLANE('',#3240);
#3260=CARTESIAN_POINT('',(-185.140909030364,-120.26934601221,0.));
#3270=DIRECTION('',(0.,0.,-1.));
#3280=VECTOR('',#3270,1.);
#3290=LINE('',#3260,#3280);
#3300=EDGE_CURVE('',#540,#1670,#3290,.T.);
#3310=ORIENTED_EDGE('',*,*,#3300,.T.);
#3320=ORIENTED_EDGE('',*,*,#550,.F.);
#3330=CARTESIAN_POINT('',(-181.830263955795,-120.26934601221,0.));
#3340=DIRECTION('',(0.,0.,-1.));
#3350=VECTOR('',#3340,1.);
#3360=LINE('',#3330,#3350);
#3370=EDGE_CURVE('',#460,#1750,#3360,.T.);
#3380=ORIENTED_EDGE('',*,*,#3370,.F.);
#3390=ORIENTED_EDGE('',*,*,#1760,.F.);
#3400=EDGE_LOOP('',(#3390,#3380,#3320,#3310));
#3410=FACE_OUTER_BOUND('',#3400,.T.);
#3420=ADVANCED_FACE('',(#3410),#3250,.T.);
#3430=CARTESIAN_POINT('',(-178.84311028844,-120.26934601221,0.));
#3440=DIRECTION('',(-0.,-1.,-0.));
#3450=DIRECTION('',(-1.,0.,0.));
#3460=AXIS2_PLACEMENT_3D('',#3430,#3440,#3450);
#3470=PLANE('',#3460);
#3480=CARTESIAN_POINT('',(-181.105570629508,-120.26934601221,0.));
#3490=DIRECTION('',(0.,0.,1.));
#3500=VECTOR('',#3490,1.);
#3510=LINE('',#3480,#3500);
#3520=EDGE_CURVE('',#2160,#130,#3510,.T.);
#3530=ORIENTED_EDGE('',*,*,#3520,.F.);
#3540=ORIENTED_EDGE('',*,*,#1340,.F.);
#3550=CARTESIAN_POINT('',(-178.676247431221,-120.26934601221,0.));
#3560=DIRECTION('',(0.,0.,-1.));
#3570=VECTOR('',#3560,1.);
#3580=LINE('',#3550,#3570);
#3590=EDGE_CURVE('',#1270,#2240,#3580,.T.);
#3600=ORIENTED_EDGE('',*,*,#3590,.F.);
#3610=ORIENTED_EDGE('',*,*,#2250,.F.);
#3620=EDGE_LOOP('',(#3610,#3600,#3540,#3530));
#3630=FACE_OUTER_BOUND('',#3620,.T.);
#3640=ADVANCED_FACE('',(#3630),#3470,.T.);
#3650=CARTESIAN_POINT('',(-177.079306489986,-123.36934601221,0.));
#3660=DIRECTION('',(-0.,-1.,-0.));
#3670=DIRECTION('',(-1.,0.,0.));
#3680=AXIS2_PLACEMENT_3D('',#3650,#3660,#3670);
#3690=PLANE('',#3680);
#3700=CARTESIAN_POINT('',(-177.845604934679,-123.36934601221,0.));
#3710=DIRECTION('',(0.,0.,-1.));
#3720=VECTOR('',#3710,1.);
#3730=LINE('',#3700,#3720);
#3740=EDGE_CURVE('',#1190,#2320,#3730,.T.);
#3750=ORIENTED_EDGE('',*,*,#3740,.T.);
#3760=ORIENTED_EDGE('',*,*,#1200,.F.);
#3770=ORIENTED_EDGE('',*,*,#3080,.T.);
#3780=ORIENTED_EDGE('',*,*,#2410,.F.);
#3790=EDGE_LOOP('',(#3780,#3770,#3760,#3750));
#3800=FACE_OUTER_BOUND('',#3790,.T.);
#3810=ADVANCED_FACE('',(#3800),#3690,.T.);
#3820=CARTESIAN_POINT('',(-182.410006778458,-123.36934601221,0.));
#3830=DIRECTION('',(-0.,-1.,-0.));
#3840=DIRECTION('',(-1.,0.,0.));
#3850=AXIS2_PLACEMENT_3D('',#3820,#3830,#3840);
#3860=PLANE('',#3850);
#3870=CARTESIAN_POINT('',(-182.729306489986,-123.36934601221,0.));
#3880=DIRECTION('',(0.,0.,1.));
#3890=VECTOR('',#3880,1.);
#3900=LINE('',#3870,#3890);
#3910=EDGE_CURVE('',#2000,#210,#3900,.T.);
#3920=ORIENTED_EDGE('',*,*,#3910,.F.);
#3930=ORIENTED_EDGE('',*,*,#220,.F.);
#3940=CARTESIAN_POINT('',(-181.936213126048,-123.36934601221,0.));
#3950=DIRECTION('',(0.,0.,1.));
#3960=VECTOR('',#3950,1.);
#3970=LINE('',#3940,#3960);
#3980=EDGE_CURVE('',#2080,#110,#3970,.T.);
#3990=ORIENTED_EDGE('',*,*,#3980,.T.);
#4000=ORIENTED_EDGE('',*,*,#2090,.F.);
#4010=EDGE_LOOP('',(#4000,#3990,#3930,#3920));
#4020=FACE_OUTER_BOUND('',#4010,.T.);
#4030=ADVANCED_FACE('',(#4020),#3860,.T.);
#4040=CARTESIAN_POINT('',(-182.729306489986,-122.86934601221,0.));
#4050=DIRECTION('',(0.,0.,1.));
#4060=DIRECTION('',(1.,0.,0.));
#4070=AXIS2_PLACEMENT_3D('',#4040,#4050,#4060);
#4080=CYLINDRICAL_SURFACE('',#4070,0.5);
#4090=ORIENTED_EDGE('',*,*,#2930,.F.);
#4100=ORIENTED_EDGE('',*,*,#310,.F.);
#4110=ORIENTED_EDGE('',*,*,#3910,.T.);
#4120=ORIENTED_EDGE('',*,*,#2010,.T.);
#4130=EDGE_LOOP('',(#4120,#4110,#4100,#4090));
#4140=FACE_OUTER_BOUND('',#4130,.T.);
#4150=ADVANCED_FACE('',(#4140),#4080,.T.);
#4160=CARTESIAN_POINT('',(-174.854306489986,-120.26934601221,0.));
#4170=DIRECTION('',(-0.,-1.,-0.));
#4180=DIRECTION('',(-1.,0.,0.));
#4190=AXIS2_PLACEMENT_3D('',#4160,#4170,#4180);
#4200=PLANE('',#4190);
#4210=CARTESIAN_POINT('',(-177.964951564555,-120.26934601221,0.));
#4220=DIRECTION('',(0.,0.,-1.));
#4230=VECTOR('',#4220,1.);
#4240=LINE('',#4210,#4230);
#4250=EDGE_CURVE('',#860,#2650,#4240,.T.);
#4260=ORIENTED_EDGE('',*,*,#4250,.T.);
#4270=ORIENTED_EDGE('',*,*,#870,.F.);
#4280=CARTESIAN_POINT('',(-174.640909030364,-120.26934601221,0.));
#4290=DIRECTION('',(0.,0.,1.));
#4300=VECTOR('',#4290,1.);
#4310=LINE('',#4280,#4300);
#4320=EDGE_CURVE('',#1510,#780,#4310,.T.);
#4330=ORIENTED_EDGE('',*,*,#4320,.T.);
#4340=ORIENTED_EDGE('',*,*,#2720,.F.);
#4350=EDGE_LOOP('',(#4340,#4330,#4270,#4260));
#4360=FACE_OUTER_BOUND('',#4350,.T.);
#4370=ADVANCED_FACE('',(#4360),#4200,.T.);
#4380=CARTESIAN_POINT('',(-182.333377608412,-122.14699172574,5.4));
#4390=DIRECTION('',(-0.965925826288454,0.258819045104813,0.));
#4400=DIRECTION('',(0.258819045104813,0.965925826288454,0.));
#4410=AXIS2_PLACEMENT_3D('',#4380,#4390,#4400);
#4420=PLANE('',#4410);
#4430=ORIENTED_EDGE('',*,*,#3370,.T.);
#4440=ORIENTED_EDGE('',*,*,#470,.F.);
#4450=ORIENTED_EDGE('',*,*,#2860,.T.);
#4460=ORIENTED_EDGE('',*,*,#1840,.F.);
#4470=EDGE_LOOP('',(#4460,#4450,#4440,#4430));
#4480=FACE_OUTER_BOUND('',#4470,.T.);
#4490=ADVANCED_FACE('',(#4480),#4420,.T.);
#4500=CARTESIAN_POINT('',(-177.172060164052,-122.36934601221,0.));
#4510=DIRECTION('',(-0.,1.,0.));
#4520=DIRECTION('',(1.,0.,0.));
#4530=AXIS2_PLACEMENT_3D('',#4500,#4510,#4520);
#4540=PLANE('',#4530);
#4550=ORIENTED_EDGE('',*,*,#3150,.F.);
#4560=ORIENTED_EDGE('',*,*,#1030,.T.);
#4570=CARTESIAN_POINT('',(-177.402258260444,-122.36934601221,0.));
#4580=DIRECTION('',(0.,0.,-1.));
#4590=VECTOR('',#4580,1.);
#4600=LINE('',#4570,#4590);
#4610=EDGE_CURVE('',#940,#2570,#4600,.T.);
#4620=ORIENTED_EDGE('',*,*,#4610,.F.);
#4630=ORIENTED_EDGE('',*,*,#2580,.F.);
#4640=EDGE_LOOP('',(#4630,#4620,#4560,#4550));
#4650=FACE_OUTER_BOUND('',#4640,.T.);
#4660=ADVANCED_FACE('',(#4650),#4540,.T.);
#4670=CARTESIAN_POINT('',(-177.964764237666,-122.924637439272,5.4));
#4680=DIRECTION('',(-0.965925826288677,-0.258819045103983,-0.));
#4690=DIRECTION('',(-0.258819045103983,0.965925826288677,0.));
#4700=AXIS2_PLACEMENT_3D('',#4670,#4680,#4690);
#4710=PLANE('',#4700);
#4720=ORIENTED_EDGE('',*,*,#3590,.T.);
#4730=ORIENTED_EDGE('',*,*,#1280,.F.);
#4740=ORIENTED_EDGE('',*,*,#3740,.F.);
#4750=ORIENTED_EDGE('',*,*,#2330,.T.);
#4760=EDGE_LOOP('',(#4750,#4740,#4730,#4720));
#4770=FACE_OUTER_BOUND('',#4760,.T.);
#4780=ADVANCED_FACE('',(#4770),#4710,.T.);
#4790=CARTESIAN_POINT('',(-174.640909030364,-119.36934601221,5.4));
#4800=DIRECTION('',(1.,0.,0.));
#4810=DIRECTION('',(0.,-1.,0.));
#4820=AXIS2_PLACEMENT_3D('',#4790,#4800,#4810);
#4830=PLANE('',#4820);
#4840=ORIENTED_EDGE('',*,*,#4320,.F.);
#4850=ORIENTED_EDGE('',*,*,#790,.F.);
#4860=CARTESIAN_POINT('',(-174.640909030364,-119.16934601221,0.));
#4870=DIRECTION('',(0.,0.,-1.));
#4880=VECTOR('',#4870,1.);
#4890=LINE('',#4860,#4880);
#4900=EDGE_CURVE('',#700,#1490,#4890,.T.);
#4910=ORIENTED_EDGE('',*,*,#4900,.F.);
#4920=ORIENTED_EDGE('',*,*,#1520,.F.);
#4930=EDGE_LOOP('',(#4920,#4910,#4850,#4840));
#4940=FACE_OUTER_BOUND('',#4930,.T.);
#4950=ADVANCED_FACE('',(#4940),#4830,.T.);
#4960=CARTESIAN_POINT('',(-177.897491655245,-120.521109821229,0.));
#4970=DIRECTION('',(0.965925826288382,0.258819045105081,0.));
#4980=DIRECTION('',(0.258819045105081,-0.965925826288382,0.));
#4990=AXIS2_PLACEMENT_3D('',#4960,#4970,#4980);
#5000=PLANE('',#4990);
#5010=ORIENTED_EDGE('',*,*,#4610,.T.);
#5020=ORIENTED_EDGE('',*,*,#950,.T.);
#5030=ORIENTED_EDGE('',*,*,#4250,.F.);
#5040=ORIENTED_EDGE('',*,*,#2660,.F.);
#5050=EDGE_LOOP('',(#5040,#5030,#5020,#5010));
#5060=FACE_OUTER_BOUND('',#5050,.T.);
#5070=ADVANCED_FACE('',(#5060),#5000,.T.);
#5080=CARTESIAN_POINT('',(-181.14529039717,-120.417582203189,5.4));
#5090=DIRECTION('',(0.965925826288803,-0.258819045103513,0.));
#5100=DIRECTION('',(-0.258819045103513,-0.965925826288803,0.));
#5110=AXIS2_PLACEMENT_3D('',#5080,#5090,#5100);
#5120=PLANE('',#5110);
#5130=ORIENTED_EDGE('',*,*,#3980,.F.);
#5140=ORIENTED_EDGE('',*,*,#140,.F.);
#5150=ORIENTED_EDGE('',*,*,#3520,.T.);
#5160=ORIENTED_EDGE('',*,*,#2170,.F.);
#5170=EDGE_LOOP('',(#5160,#5150,#5140,#5130));
#5180=FACE_OUTER_BOUND('',#5170,.T.);
#5190=ADVANCED_FACE('',(#5180),#5120,.T.);
#5200=CARTESIAN_POINT('',(-185.140909030364,-120.06934601221,5.4));
#5210=DIRECTION('',(-1.,0.,0.));
#5220=DIRECTION('',(0.,1.,0.));
#5230=AXIS2_PLACEMENT_3D('',#5200,#5210,#5220);
#5240=PLANE('',#5230);
#5250=CARTESIAN_POINT('',(-185.140909030364,-119.16934601221,0.));
#5260=DIRECTION('',(0.,0.,1.));
#5270=VECTOR('',#5260,1.);
#5280=LINE('',#5250,#5270);
#5290=EDGE_CURVE('',#1590,#620,#5280,.T.);
#5300=ORIENTED_EDGE('',*,*,#5290,.F.);
#5310=ORIENTED_EDGE('',*,*,#630,.F.);
#5320=ORIENTED_EDGE('',*,*,#3300,.F.);
#5330=ORIENTED_EDGE('',*,*,#1680,.F.);
#5340=EDGE_LOOP('',(#5330,#5320,#5310,#5300));
#5350=FACE_OUTER_BOUND('',#5340,.T.);
#5360=ADVANCED_FACE('',(#5350),#5240,.T.);
#5370=CARTESIAN_POINT('',(-184.954306489986,-119.16934601221,0.));
#5380=DIRECTION('',(-0.,1.,0.));
#5390=DIRECTION('',(1.,0.,0.));
#5400=AXIS2_PLACEMENT_3D('',#5370,#5380,#5390);
#5410=PLANE('',#5400);
#5420=ORIENTED_EDGE('',*,*,#4900,.T.);
#5430=ORIENTED_EDGE('',*,*,#710,.F.);
#5440=ORIENTED_EDGE('',*,*,#5290,.T.);
#5450=ORIENTED_EDGE('',*,*,#1600,.F.);
#5460=EDGE_LOOP('',(#5450,#5440,#5430,#5420));
#5470=FACE_OUTER_BOUND('',#5460,.T.);
#5480=ADVANCED_FACE('',(#5470),#5410,.T.);
#5490=CLOSED_SHELL('',(#2980,#3200,#3420,#3640,#3810,#4030,#4150,#4370,
#4490,#4660,#4780,#4950,#5070,#5190,#5360,#5480,#1380,#2760));
#5500=MANIFOLD_SOLID_BREP('',#5490);
#5510=CARTESIAN_POINT('',(0.,0.,0.));
#5520=DIRECTION('',(0.,0.,1.));
#5530=DIRECTION('',(1.,0.,0.));
#5540=AXIS2_PLACEMENT_3D('',#5510,#5520,#5530);
#5550=APPLICATION_CONTEXT(' ');
#5560=APPLICATION_PROTOCOL_DEFINITION(' ','automotive_design',1998,#5550
);
#5570=PRODUCT_CONTEXT('',#5550,'mechanical');
#5580=PRODUCT_DEFINITION_CONTEXT('part definition',#5550,'design');
#5590=PRODUCT('ZB_8-select','ZB_8-select','',(#5570));
#5600=PRODUCT_RELATED_PRODUCT_CATEGORY('part',' ',(#5590));
#5610=PRODUCT_DEFINITION_FORMATION_WITH_SPECIFIED_SOURCE('','',#5590,
.BOUGHT.);
#5620=PRODUCT_DEFINITION('',' ',#5610,#5580);
#5630=PRODUCT_DEFINITION_SHAPE('','',#5620);
#5640=DIMENSIONAL_EXPONENTS(1.,0.,0.,0.,0.,0.,0.);
#5650=DIMENSIONAL_EXPONENTS(0.,0.,0.,0.,0.,0.,0.);
#5660=DIMENSIONAL_EXPONENTS(0.,0.,0.,0.,0.,0.,0.);
#5670=(LENGTH_UNIT() NAMED_UNIT(*) SI_UNIT(.MILLI.,.METRE.));
#5680=(NAMED_UNIT(*) PLANE_ANGLE_UNIT() SI_UNIT($,.RADIAN.));
#5690=(NAMED_UNIT(*) SI_UNIT($,.STERADIAN.) SOLID_ANGLE_UNIT());
#5700=(GEOMETRIC_REPRESENTATION_CONTEXT(3) 
GLOBAL_UNCERTAINTY_ASSIGNED_CONTEXT((#5710)) 
GLOBAL_UNIT_ASSIGNED_CONTEXT((#5670,#5680,#5690)) REPRESENTATION_CONTEXT
('',''));
#5710=UNCERTAINTY_MEASURE_WITH_UNIT(LENGTH_MEASURE(1.E-6),#5670,
'distance_accuracy_value','maximum gap value');
#5720=ADVANCED_BREP_SHAPE_REPRESENTATION('',(#5540,#5500),#5700);
#5730=SHAPE_DEFINITION_REPRESENTATION(#5630,#5720);
#5740=COLOUR_RGB('',0.980392217636108,1.,1.);
#5750=FILL_AREA_STYLE_COLOUR('',#5740);
#5760=FILL_AREA_STYLE('',(#5750));
#5770=SURFACE_STYLE_FILL_AREA(#5760);
#5780=SURFACE_SIDE_STYLE('',(#5770));
#5790=SURFACE_STYLE_USAGE(.BOTH.,#5780);
#5800=PRESENTATION_STYLE_ASSIGNMENT((#5790));
#5810=STYLED_ITEM('',(#5800),#5500);
#5820=DRAUGHTING_MODEL('',(#5810),#5700);
#5830=CARTESIAN_POINT('',(12.,-174.640909030364,123.36934601221));
#5840=DIRECTION('',(-1.,0.,0.));
#5850=DIRECTION('',(0.,-1.,0.));
#5860=AXIS2_PLACEMENT_3D('',#5830,#5840,#5850);
#5870=ITEM_DEFINED_TRANSFORMATION('ZB_8-select','',#5540,#5860);
#5880=APPLICATION_CONTEXT(' ');
#5890=APPLICATION_PROTOCOL_DEFINITION(' ','automotive_design',1998,#5880
);
#5900=PRODUCT_CONTEXT('',#5880,'mechanical');
#5910=PRODUCT_DEFINITION_CONTEXT('part definition',#5880,'design');
#5920=PRODUCT('ZB_8-select','ZB_8-select','',(#5900));
#5930=PRODUCT_RELATED_PRODUCT_CATEGORY('part',' ',(#5920));
#5940=PRODUCT_DEFINITION_FORMATION_WITH_SPECIFIED_SOURCE('','',#5920,
.BOUGHT.);
#5950=PRODUCT_DEFINITION('',' ',#5940,#5910);
#5960=PRODUCT_DEFINITION_SHAPE('','',#5950);
#5970=DIMENSIONAL_EXPONENTS(1.,0.,0.,0.,0.,0.,0.);
#5980=DIMENSIONAL_EXPONENTS(0.,0.,0.,0.,0.,0.,0.);
#5990=DIMENSIONAL_EXPONENTS(0.,0.,0.,0.,0.,0.,0.);
#6000=(LENGTH_UNIT() NAMED_UNIT(*) SI_UNIT(.MILLI.,.METRE.));
#6010=(NAMED_UNIT(*) PLANE_ANGLE_UNIT() SI_UNIT($,.RADIAN.));
#6020=(NAMED_UNIT(*) SI_UNIT($,.STERADIAN.) SOLID_ANGLE_UNIT());
#6030=(GEOMETRIC_REPRESENTATION_CONTEXT(3) 
GLOBAL_UNCERTAINTY_ASSIGNED_CONTEXT((#6040)) 
GLOBAL_UNIT_ASSIGNED_CONTEXT((#6000,#6010,#6020)) REPRESENTATION_CONTEXT
('',''));
#6040=UNCERTAINTY_MEASURE_WITH_UNIT(LENGTH_MEASURE(1.E-6),#6000,
'distance_accuracy_value','maximum gap value');
#6050=SHAPE_REPRESENTATION('',(#5540,#5860),#6030);
#6060=SHAPE_DEFINITION_REPRESENTATION(#5960,#6050);
#6070=(REPRESENTATION_RELATIONSHIP('','',#5720,#6050) 
REPRESENTATION_RELATIONSHIP_WITH_TRANSFORMATION(#5870) 
SHAPE_REPRESENTATION_RELATIONSHIP());
#6080=NEXT_ASSEMBLY_USAGE_OCCURRENCE('1','','ZB_8-select',#5950,#5620,''
);
#6090=PRODUCT_DEFINITION_SHAPE('','',#6080);
#6100=CONTEXT_DEPENDENT_SHAPE_REPRESENTATION(#6070,#6090);
ENDSEC;
END-ISO-10303-21;
