ISO-10303-21;
HEADER;
FILE_DESCRIPTION(('Creo Elements/Direct Modeling STEP Export'),'2;1');
FILE_NAME(
'C:/temp/JobSpoolerServerData/JobServer Files/2eac164b-b050-41ec-9c6f-2b
bcb068afd3/work/output/model.stp','2020-01-20T12:27:33',(''),(''),
'Creo Elements/Direct Modeling STEP processor for AP214 (Solid Model)',
'Creo Elements/Direct Modeling 20.1A  29-Sep-2018 (C) Parametric Technol
ogy GmbH','');
FILE_SCHEMA(('AUTOMOTIVE_DESIGN { 1 0 10303 214 1 1 1 1 }'));
ENDSEC;
DATA;
#10=CARTESIAN_POINT('',(-22.5178327783261,-37.7798339999882,54.27));
#20=DIRECTION('',(1.,-1.83847064084899E-17,0.));
#30=DIRECTION('',(1.83847064084899E-17,1.,0.));
#40=AXIS2_PLACEMENT_3D('',#10,#20,#30);
#50=PLANE('',#40);
#60=CARTESIAN_POINT('',(-22.5178327783261,-11.9419617772823,53.17));
#70=DIRECTION('',(0.,0.,-1.));
#80=VECTOR('',#70,1.);
#90=LINE('',#60,#80);
#100=CARTESIAN_POINT('',(-22.5178327783261,-11.9419617772823,
54.1699999999999));
#110=VERTEX_POINT('',#100);
#120=CARTESIAN_POINT('',(-22.5178327783261,-11.9419617772823,53.17));
#130=VERTEX_POINT('',#120);
#140=EDGE_CURVE('',#110,#130,#90,.T.);
#150=ORIENTED_EDGE('',*,*,#140,.F.);
#160=CARTESIAN_POINT('',(-22.5178327783261,-66.0699492305647,53.17));
#170=DIRECTION('',(-1.83847064084899E-17,-1.,0.));
#180=VECTOR('',#170,1.);
#190=LINE('',#160,#180);
#200=CARTESIAN_POINT('',(-22.5178327783261,-31.7999999999899,53.17));
#210=VERTEX_POINT('',#200);
#220=EDGE_CURVE('',#130,#210,#190,.T.);
#230=ORIENTED_EDGE('',*,*,#220,.F.);
#240=CARTESIAN_POINT('',(-22.5178327783261,-31.7999999999899,53.17));
#250=DIRECTION('',(0.,0.,-1.));
#260=VECTOR('',#250,1.);
#270=LINE('',#240,#260);
#280=CARTESIAN_POINT('',(-22.5178327783261,-31.7999999999899,
54.1699999999999));
#290=VERTEX_POINT('',#280);
#300=EDGE_CURVE('',#290,#210,#270,.T.);
#310=ORIENTED_EDGE('',*,*,#300,.T.);
#320=CARTESIAN_POINT('',(-22.5178327783261,-12.1300507694265,
54.1699999999999));
#330=DIRECTION('',(-1.83847064084899E-17,-1.,1.11022302462516E-16));
#340=VECTOR('',#330,1.);
#350=LINE('',#320,#340);
#360=EDGE_CURVE('',#110,#290,#350,.T.);
#370=ORIENTED_EDGE('',*,*,#360,.T.);
#380=EDGE_LOOP('',(#370,#310,#230,#150));
#390=FACE_OUTER_BOUND('',#380,.T.);
#400=ADVANCED_FACE('',(#390),#50,.T.);
#410=COLOUR_RGB('',0.560784339904785,0.588235318660736,0.600000023841858
);
#420=FILL_AREA_STYLE_COLOUR('',#410);
#430=FILL_AREA_STYLE('',(#420));
#440=SURFACE_STYLE_FILL_AREA(#430);
#450=SURFACE_SIDE_STYLE('',(#440));
#460=SURFACE_STYLE_USAGE(.BOTH.,#450);
#470=PRESENTATION_STYLE_ASSIGNMENT((#460));
#480=CARTESIAN_POINT('',(-36.2476392887498,-59.2510409999913,
54.1699999999999));
#490=DIRECTION('',(3.88578058618805E-16,1.11022302462516E-16,1.));
#500=DIRECTION('',(-1.,-6.9388939039072E-18,3.88578058618805E-16));
#510=AXIS2_PLACEMENT_3D('',#480,#490,#500);
#520=PLANE('',#510);
#530=CARTESIAN_POINT('',(-34.1678327783261,-12.1300507694265,
54.1699999999999));
#540=DIRECTION('',(1.22464679914735E-16,1.,-1.11022302462516E-16));
#550=VECTOR('',#540,1.);
#560=LINE('',#530,#550);
#570=CARTESIAN_POINT('',(-34.1678327783261,-31.7999999999899,
54.1699999999999));
#580=VERTEX_POINT('',#570);
#590=CARTESIAN_POINT('',(-34.1678327783261,-30.1999999999909,
54.1699999999999));
#600=VERTEX_POINT('',#590);
#610=EDGE_CURVE('',#580,#600,#560,.T.);
#620=ORIENTED_EDGE('',*,*,#610,.F.);
#630=CARTESIAN_POINT('',(-48.4769207995803,-25.699999999991,
54.1699999999999));
#640=DIRECTION('',(0.,0.,1.));
#650=DIRECTION('',(1.,-1.22464679914735E-16,0.));
#660=AXIS2_PLACEMENT_3D('',#630,#640,#650);
#670=CIRCLE('',#660,15.);
#680=CARTESIAN_POINT('',(-34.1678327783261,-21.199999999991,
54.1699999999999));
#690=VERTEX_POINT('',#680);
#700=EDGE_CURVE('',#600,#690,#670,.T.);
#710=ORIENTED_EDGE('',*,*,#700,.F.);
#720=CARTESIAN_POINT('',(-34.1678327783261,-12.1300507694265,
54.1699999999999));
#730=DIRECTION('',(1.22464679914735E-16,1.,-1.11022302462516E-16));
#740=VECTOR('',#730,1.);
#750=LINE('',#720,#740);
#760=CARTESIAN_POINT('',(-34.1678327783261,-16.4655444565975,
54.1699999999999));
#770=VERTEX_POINT('',#760);
#780=EDGE_CURVE('',#690,#770,#750,.T.);
#790=ORIENTED_EDGE('',*,*,#780,.F.);
#800=CARTESIAN_POINT('',(-33.0061407460555,-12.1300507694265,
54.1699999999999));
#810=DIRECTION('',(0.258819045103118,0.965925826288908,
-2.22044604925031E-16));
#820=VECTOR('',#810,1.);
#830=LINE('',#800,#820);
#840=CARTESIAN_POINT('',(-32.2076385489792,-9.14999999998986,
54.1699999999999));
#850=VERTEX_POINT('',#840);
#860=EDGE_CURVE('',#770,#850,#830,.T.);
#870=ORIENTED_EDGE('',*,*,#860,.F.);
#880=CARTESIAN_POINT('',(11.4461541156283,-9.14999999998986,
54.1699999999999));
#890=DIRECTION('',(1.,-1.22464679914735E-16,-3.88578058618805E-16));
#900=VECTOR('',#890,1.);
#910=LINE('',#880,#900);
#920=CARTESIAN_POINT('',(-20.9058928946391,-9.14999999998986,
54.1699999999999));
#930=VERTEX_POINT('',#920);
#940=EDGE_CURVE('',#850,#930,#910,.T.);
#950=ORIENTED_EDGE('',*,*,#940,.F.);
#960=CARTESIAN_POINT('',(-22.6264260085721,-12.1300507694265,
54.1699999999999));
#970=DIRECTION('',(0.499999999999997,0.86602540378444,
-3.05311331771918E-16));
#980=VECTOR('',#970,1.);
#990=LINE('',#960,#980);
#1000=EDGE_CURVE('',#110,#930,#990,.T.);
#1010=ORIENTED_EDGE('',*,*,#1000,.T.);
#1020=ORIENTED_EDGE('',*,*,#360,.F.);
#1030=CARTESIAN_POINT('',(11.4461541156283,-31.7999999999899,
54.1699999999999));
#1040=DIRECTION('',(1.,0.,-3.88578058618805E-16));
#1050=VECTOR('',#1040,1.);
#1060=LINE('',#1030,#1050);
#1070=EDGE_CURVE('',#580,#290,#1060,.T.);
#1080=ORIENTED_EDGE('',*,*,#1070,.T.);
#1090=EDGE_LOOP('',(#1080,#1020,#1010,#950,#870,#790,#710,#620));
#1100=FACE_OUTER_BOUND('',#1090,.T.);
#1110=ADVANCED_FACE('',(#1100),#520,.T.);
#1120=COLOUR_RGB('',0.560784339904785,0.588235318660736,
0.600000023841858);
#1130=FILL_AREA_STYLE_COLOUR('',#1120);
#1140=FILL_AREA_STYLE('',(#1130));
#1150=SURFACE_STYLE_FILL_AREA(#1140);
#1160=SURFACE_SIDE_STYLE('',(#1150));
#1170=SURFACE_STYLE_USAGE(.BOTH.,#1160);
#1180=PRESENTATION_STYLE_ASSIGNMENT((#1170));
#1190=CARTESIAN_POINT('',(-34.1798353230843,-16.5103385634553,53.17));
#1200=DIRECTION('',(-0.965925826288908,0.258819045103118,0.));
#1210=DIRECTION('',(0.258819045103118,0.965925826288908,0.));
#1220=AXIS2_PLACEMENT_3D('',#1190,#1200,#1210);
#1230=PLANE('',#1220);
#1240=CARTESIAN_POINT('',(-47.45929297857,-66.0699492305647,53.17));
#1250=DIRECTION('',(0.258819045103118,0.965925826288908,0.));
#1260=VECTOR('',#1250,1.);
#1270=LINE('',#1240,#1260);
#1280=CARTESIAN_POINT('',(-34.1678327783261,-16.4655444565975,53.17));
#1290=VERTEX_POINT('',#1280);
#1300=CARTESIAN_POINT('',(-32.2076385489792,-9.14999999998986,53.17));
#1310=VERTEX_POINT('',#1300);
#1320=EDGE_CURVE('',#1290,#1310,#1270,.T.);
#1330=ORIENTED_EDGE('',*,*,#1320,.F.);
#1340=CARTESIAN_POINT('',(-32.2076385489792,-9.14999999998986,53.17));
#1350=DIRECTION('',(0.,0.,1.));
#1360=VECTOR('',#1350,1.);
#1370=LINE('',#1340,#1360);
#1380=EDGE_CURVE('',#1310,#850,#1370,.T.);
#1390=ORIENTED_EDGE('',*,*,#1380,.F.);
#1400=ORIENTED_EDGE('',*,*,#860,.T.);
#1410=CARTESIAN_POINT('',(-34.1678327783261,-16.4655444565975,53.17));
#1420=DIRECTION('',(0.,0.,1.));
#1430=VECTOR('',#1420,1.);
#1440=LINE('',#1410,#1430);
#1450=EDGE_CURVE('',#1290,#770,#1440,.T.);
#1460=ORIENTED_EDGE('',*,*,#1450,.T.);
#1470=EDGE_LOOP('',(#1460,#1400,#1390,#1330));
#1480=FACE_OUTER_BOUND('',#1470,.T.);
#1490=ADVANCED_FACE('',(#1480),#1230,.T.);
#1500=COLOUR_RGB('',0.560784339904785,0.588235318660736,
0.600000023841858);
#1510=FILL_AREA_STYLE_COLOUR('',#1500);
#1520=FILL_AREA_STYLE('',(#1510));
#1530=SURFACE_STYLE_FILL_AREA(#1520);
#1540=SURFACE_SIDE_STYLE('',(#1530));
#1550=SURFACE_STYLE_USAGE(.BOTH.,#1540);
#1560=PRESENTATION_STYLE_ASSIGNMENT((#1550));
#1570=CARTESIAN_POINT('',(-19.2757057553309,-31.7999999999899,53.92));
#1580=DIRECTION('',(0.,1.,0.));
#1590=DIRECTION('',(0.,0.,1.));
#1600=AXIS2_PLACEMENT_3D('',#1570,#1580,#1590);
#1610=PLANE('',#1600);
#1620=CARTESIAN_POINT('',(-10.1273864043781,-31.7999999999899,53.17));
#1630=DIRECTION('',(1.,0.,0.));
#1640=VECTOR('',#1630,1.);
#1650=LINE('',#1620,#1640);
#1660=CARTESIAN_POINT('',(-34.1678327783261,-31.7999999999899,53.17));
#1670=VERTEX_POINT('',#1660);
#1680=EDGE_CURVE('',#1670,#210,#1650,.T.);
#1690=ORIENTED_EDGE('',*,*,#1680,.T.);
#1700=CARTESIAN_POINT('',(-34.1678327783261,-31.7999999999899,53.17));
#1710=DIRECTION('',(0.,0.,1.));
#1720=VECTOR('',#1710,1.);
#1730=LINE('',#1700,#1720);
#1740=EDGE_CURVE('',#1670,#580,#1730,.T.);
#1750=ORIENTED_EDGE('',*,*,#1740,.F.);
#1760=ORIENTED_EDGE('',*,*,#1070,.F.);
#1770=ORIENTED_EDGE('',*,*,#300,.F.);
#1780=EDGE_LOOP('',(#1770,#1760,#1750,#1690));
#1790=FACE_OUTER_BOUND('',#1780,.T.);
#1800=ADVANCED_FACE('',(#1790),#1610,.F.);
#1810=COLOUR_RGB('',0.560784339904785,0.588235318660736,
0.600000023841858);
#1820=FILL_AREA_STYLE_COLOUR('',#1810);
#1830=FILL_AREA_STYLE('',(#1820));
#1840=SURFACE_STYLE_FILL_AREA(#1830);
#1850=SURFACE_SIDE_STYLE('',(#1840));
#1860=SURFACE_STYLE_USAGE(.BOTH.,#1850);
#1870=PRESENTATION_STYLE_ASSIGNMENT((#1860));
#1880=CARTESIAN_POINT('',(-5.33035950726615,-9.14999999998986,
54.9881177917553));
#1890=DIRECTION('',(1.22464679914735E-16,1.,-0.));
#1900=DIRECTION('',(-1.,1.22464679914735E-16,0.));
#1910=AXIS2_PLACEMENT_3D('',#1880,#1890,#1900);
#1920=PLANE('',#1910);
#1930=ORIENTED_EDGE('',*,*,#940,.T.);
#1940=ORIENTED_EDGE('',*,*,#1380,.T.);
#1950=CARTESIAN_POINT('',(-10.1273864043781,-9.14999999998986,53.17));
#1960=DIRECTION('',(1.,-1.22464679914735E-16,0.));
#1970=VECTOR('',#1960,1.);
#1980=LINE('',#1950,#1970);
#1990=CARTESIAN_POINT('',(-20.9058928946391,-9.14999999998986,53.17));
#2000=VERTEX_POINT('',#1990);
#2010=EDGE_CURVE('',#1310,#2000,#1980,.T.);
#2020=ORIENTED_EDGE('',*,*,#2010,.F.);
#2030=CARTESIAN_POINT('',(-20.9058928946391,-9.14999999998986,53.17));
#2040=DIRECTION('',(0.,0.,1.));
#2050=VECTOR('',#2040,1.);
#2060=LINE('',#2030,#2050);
#2070=EDGE_CURVE('',#2000,#930,#2060,.T.);
#2080=ORIENTED_EDGE('',*,*,#2070,.F.);
#2090=EDGE_LOOP('',(#2080,#2020,#1940,#1930));
#2100=FACE_OUTER_BOUND('',#2090,.T.);
#2110=ADVANCED_FACE('',(#2100),#1920,.T.);
#2120=COLOUR_RGB('',0.560784339904785,0.588235318660736,
0.600000023841858);
#2130=FILL_AREA_STYLE_COLOUR('',#2120);
#2140=FILL_AREA_STYLE('',(#2130));
#2150=SURFACE_STYLE_FILL_AREA(#2140);
#2160=SURFACE_SIDE_STYLE('',(#2150));
#2170=SURFACE_STYLE_USAGE(.BOTH.,#2160);
#2180=PRESENTATION_STYLE_ASSIGNMENT((#2170));
#2190=CARTESIAN_POINT('',(-25.3557940000014,-17.5877579999882,53.17));
#2200=DIRECTION('',(0.,0.,-1.));
#2210=DIRECTION('',(-1.,1.22464679914735E-16,0.));
#2220=AXIS2_PLACEMENT_3D('',#2190,#2200,#2210);
#2230=PLANE('',#2220);
#2240=ORIENTED_EDGE('',*,*,#2010,.T.);
#2250=ORIENTED_EDGE('',*,*,#1320,.T.);
#2260=CARTESIAN_POINT('',(-34.1678327783261,-66.0699492305647,53.17));
#2270=DIRECTION('',(1.22464679914735E-16,1.,0.));
#2280=VECTOR('',#2270,1.);
#2290=LINE('',#2260,#2280);
#2300=CARTESIAN_POINT('',(-34.1678327783261,-21.199999999991,53.17));
#2310=VERTEX_POINT('',#2300);
#2320=EDGE_CURVE('',#2310,#1290,#2290,.T.);
#2330=ORIENTED_EDGE('',*,*,#2320,.T.);
#2340=CARTESIAN_POINT('',(-48.4769207995803,-25.699999999991,53.17));
#2350=DIRECTION('',(0.,0.,1.));
#2360=DIRECTION('',(1.,-1.22464679914735E-16,0.));
#2370=AXIS2_PLACEMENT_3D('',#2340,#2350,#2360);
#2380=CIRCLE('',#2370,15.);
#2390=CARTESIAN_POINT('',(-34.1678327783261,-30.1999999999909,53.17));
#2400=VERTEX_POINT('',#2390);
#2410=EDGE_CURVE('',#2400,#2310,#2380,.T.);
#2420=ORIENTED_EDGE('',*,*,#2410,.T.);
#2430=CARTESIAN_POINT('',(-34.1678327783261,-66.0699492305647,53.17));
#2440=DIRECTION('',(1.22464679914735E-16,1.,0.));
#2450=VECTOR('',#2440,1.);
#2460=LINE('',#2430,#2450);
#2470=EDGE_CURVE('',#1670,#2400,#2460,.T.);
#2480=ORIENTED_EDGE('',*,*,#2470,.T.);
#2490=ORIENTED_EDGE('',*,*,#1680,.F.);
#2500=ORIENTED_EDGE('',*,*,#220,.T.);
#2510=CARTESIAN_POINT('',(-22.6264260085721,-12.1300507694265,53.17));
#2520=DIRECTION('',(-0.499999999999997,-0.86602540378444,0.));
#2530=VECTOR('',#2520,1.);
#2540=LINE('',#2510,#2530);
#2550=EDGE_CURVE('',#2000,#130,#2540,.T.);
#2560=ORIENTED_EDGE('',*,*,#2550,.T.);
#2570=EDGE_LOOP('',(#2560,#2500,#2490,#2480,#2420,#2330,#2250,#2240));
#2580=FACE_OUTER_BOUND('',#2570,.T.);
#2590=ADVANCED_FACE('',(#2580),#2230,.T.);
#2600=COLOUR_RGB('',0.560784339904785,0.588235318660736,
0.600000023841858);
#2610=FILL_AREA_STYLE_COLOUR('',#2600);
#2620=FILL_AREA_STYLE('',(#2610));
#2630=SURFACE_STYLE_FILL_AREA(#2620);
#2640=SURFACE_SIDE_STYLE('',(#2630));
#2650=SURFACE_STYLE_USAGE(.BOTH.,#2640);
#2660=PRESENTATION_STYLE_ASSIGNMENT((#2650));
#2670=CARTESIAN_POINT('',(-34.1678327783261,-21.199999999991,53.17));
#2680=DIRECTION('',(-1.,1.22464679914735E-16,0.));
#2690=DIRECTION('',(1.22464679914735E-16,1.,0.));
#2700=AXIS2_PLACEMENT_3D('',#2670,#2680,#2690);
#2710=PLANE('',#2700);
#2720=ORIENTED_EDGE('',*,*,#2320,.F.);
#2730=ORIENTED_EDGE('',*,*,#1450,.F.);
#2740=ORIENTED_EDGE('',*,*,#780,.T.);
#2750=CARTESIAN_POINT('',(-34.1678327783261,-21.199999999991,53.17));
#2760=DIRECTION('',(0.,0.,1.));
#2770=VECTOR('',#2760,1.);
#2780=LINE('',#2750,#2770);
#2790=EDGE_CURVE('',#2310,#690,#2780,.T.);
#2800=ORIENTED_EDGE('',*,*,#2790,.T.);
#2810=EDGE_LOOP('',(#2800,#2740,#2730,#2720));
#2820=FACE_OUTER_BOUND('',#2810,.T.);
#2830=ADVANCED_FACE('',(#2820),#2710,.T.);
#2840=COLOUR_RGB('',0.560784339904785,0.588235318660736,
0.600000023841858);
#2850=FILL_AREA_STYLE_COLOUR('',#2840);
#2860=FILL_AREA_STYLE('',(#2850));
#2870=SURFACE_STYLE_FILL_AREA(#2860);
#2880=SURFACE_SIDE_STYLE('',(#2870));
#2890=SURFACE_STYLE_USAGE(.BOTH.,#2880);
#2900=PRESENTATION_STYLE_ASSIGNMENT((#2890));
#2910=CARTESIAN_POINT('',(-34.1678327783261,-38.1999999999898,53.17));
#2920=DIRECTION('',(-1.,1.22464679914735E-16,0.));
#2930=DIRECTION('',(1.22464679914735E-16,1.,0.));
#2940=AXIS2_PLACEMENT_3D('',#2910,#2920,#2930);
#2950=PLANE('',#2940);
#2960=ORIENTED_EDGE('',*,*,#2470,.F.);
#2970=CARTESIAN_POINT('',(-34.1678327783261,-30.1999999999909,53.17));
#2980=DIRECTION('',(0.,0.,1.));
#2990=VECTOR('',#2980,1.);
#3000=LINE('',#2970,#2990);
#3010=EDGE_CURVE('',#2400,#600,#3000,.T.);
#3020=ORIENTED_EDGE('',*,*,#3010,.F.);
#3030=ORIENTED_EDGE('',*,*,#610,.T.);
#3040=ORIENTED_EDGE('',*,*,#1740,.T.);
#3050=EDGE_LOOP('',(#3040,#3030,#3020,#2960));
#3060=FACE_OUTER_BOUND('',#3050,.T.);
#3070=ADVANCED_FACE('',(#3060),#2950,.T.);
#3080=COLOUR_RGB('',0.560784339904785,0.588235318660736,
0.600000023841858);
#3090=FILL_AREA_STYLE_COLOUR('',#3080);
#3100=FILL_AREA_STYLE('',(#3090));
#3110=SURFACE_STYLE_FILL_AREA(#3100);
#3120=SURFACE_SIDE_STYLE('',(#3110));
#3130=SURFACE_STYLE_USAGE(.BOTH.,#3120);
#3140=PRESENTATION_STYLE_ASSIGNMENT((#3130));
#3150=CARTESIAN_POINT('',(-48.4769207995803,-25.699999999991,53.17));
#3160=DIRECTION('',(0.,0.,1.));
#3170=DIRECTION('',(1.,-1.22464679914735E-16,0.));
#3180=AXIS2_PLACEMENT_3D('',#3150,#3160,#3170);
#3190=CYLINDRICAL_SURFACE('',#3180,15.);
#3200=ORIENTED_EDGE('',*,*,#2410,.F.);
#3210=ORIENTED_EDGE('',*,*,#2790,.F.);
#3220=ORIENTED_EDGE('',*,*,#700,.T.);
#3230=ORIENTED_EDGE('',*,*,#3010,.T.);
#3240=EDGE_LOOP('',(#3230,#3220,#3210,#3200));
#3250=FACE_OUTER_BOUND('',#3240,.T.);
#3260=ADVANCED_FACE('',(#3250),#3190,.F.);
#3270=COLOUR_RGB('',0.560784339904785,0.588235318660736,
0.600000023841858);
#3280=FILL_AREA_STYLE_COLOUR('',#3270);
#3290=FILL_AREA_STYLE('',(#3280));
#3300=SURFACE_STYLE_FILL_AREA(#3290);
#3310=SURFACE_SIDE_STYLE('',(#3300));
#3320=SURFACE_STYLE_USAGE(.BOTH.,#3310);
#3330=PRESENTATION_STYLE_ASSIGNMENT((#3320));
#3340=CARTESIAN_POINT('',(-22.4508454802183,-11.8259363734979,
54.1699999999999));
#3350=DIRECTION('',(0.86602540378444,-0.499999999999997,0.));
#3360=DIRECTION('',(-0.499999999999997,-0.86602540378444,0.));
#3370=AXIS2_PLACEMENT_3D('',#3340,#3350,#3360);
#3380=PLANE('',#3370);
#3390=ORIENTED_EDGE('',*,*,#2070,.T.);
#3400=ORIENTED_EDGE('',*,*,#2550,.F.);
#3410=ORIENTED_EDGE('',*,*,#140,.T.);
#3420=ORIENTED_EDGE('',*,*,#1000,.F.);
#3430=EDGE_LOOP('',(#3420,#3410,#3400,#3390));
#3440=FACE_OUTER_BOUND('',#3430,.T.);
#3450=ADVANCED_FACE('',(#3440),#3380,.T.);
#3460=COLOUR_RGB('',0.560784339904785,0.588235318660736,
0.600000023841858);
#3470=FILL_AREA_STYLE_COLOUR('',#3460);
#3480=FILL_AREA_STYLE('',(#3470));
#3490=SURFACE_STYLE_FILL_AREA(#3480);
#3500=SURFACE_SIDE_STYLE('',(#3490));
#3510=SURFACE_STYLE_USAGE(.BOTH.,#3500);
#3520=PRESENTATION_STYLE_ASSIGNMENT((#3510));
#3530=CLOSED_SHELL('',(#400,#1110,#1490,#1800,#2110,#2590,#2830,#3070,
#3260,#3450));
#3540=MANIFOLD_SOLID_BREP('',#3530);
#3550=CARTESIAN_POINT('',(0.,0.,0.));
#3560=DIRECTION('',(0.,0.,1.));
#3570=DIRECTION('',(1.,0.,0.));
#3580=AXIS2_PLACEMENT_3D('',#3550,#3560,#3570);
#3590=APPLICATION_CONTEXT(' ');
#3600=APPLICATION_PROTOCOL_DEFINITION(' ','automotive_design',1998,#3590
);
#3610=PRODUCT_CONTEXT('',#3590,'mechanical');
#3620=PRODUCT_DEFINITION_CONTEXT('part definition',#3590,'design');
#3630=PRODUCT('DS-ST-2.5-SMALL-SELECT','DS-ST-2.5-SMALL-SELECT','',(
#3610));
#3640=PRODUCT_RELATED_PRODUCT_CATEGORY('part',' ',(#3630));
#3650=PRODUCT_DEFINITION_FORMATION_WITH_SPECIFIED_SOURCE('','',#3630,
.BOUGHT.);
#3660=PRODUCT_DEFINITION('',' ',#3650,#3620);
#3670=PRODUCT_DEFINITION_SHAPE('','',#3660);
#3680=DIMENSIONAL_EXPONENTS(1.,0.,0.,0.,0.,0.,0.);
#3690=DIMENSIONAL_EXPONENTS(0.,0.,0.,0.,0.,0.,0.);
#3700=DIMENSIONAL_EXPONENTS(0.,0.,0.,0.,0.,0.,0.);
#3710=(LENGTH_UNIT() NAMED_UNIT(*) SI_UNIT(.MILLI.,.METRE.));
#3720=(NAMED_UNIT(*) PLANE_ANGLE_UNIT() SI_UNIT($,.RADIAN.));
#3730=(NAMED_UNIT(*) SI_UNIT($,.STERADIAN.) SOLID_ANGLE_UNIT());
#3740=(GEOMETRIC_REPRESENTATION_CONTEXT(3) 
GLOBAL_UNCERTAINTY_ASSIGNED_CONTEXT((#3750)) 
GLOBAL_UNIT_ASSIGNED_CONTEXT((#3710,#3720,#3730)) REPRESENTATION_CONTEXT
('',''));
#3750=UNCERTAINTY_MEASURE_WITH_UNIT(LENGTH_MEASURE(1.E-6),#3710,
'distance_accuracy_value','maximum gap value');
#3760=ADVANCED_BREP_SHAPE_REPRESENTATION('',(#3580,#3540),#3740);
#3770=SHAPE_DEFINITION_REPRESENTATION(#3670,#3760);
#3780=COLOUR_RGB('',0.560784339904785,0.588235318660736,
0.600000023841858);
#3790=FILL_AREA_STYLE_COLOUR('',#3780);
#3800=FILL_AREA_STYLE('',(#3790));
#3810=SURFACE_STYLE_FILL_AREA(#3800);
#3820=SURFACE_SIDE_STYLE('',(#3810));
#3830=SURFACE_STYLE_USAGE(.BOTH.,#3820);
#3840=PRESENTATION_STYLE_ASSIGNMENT((#3830));
#3850=STYLED_ITEM('',(#3840),#3540);
#3860=OVER_RIDING_STYLED_ITEM('',(#470),#400,#3850);
#3870=OVER_RIDING_STYLED_ITEM('',(#1180),#1110,#3850);
#3880=OVER_RIDING_STYLED_ITEM('',(#1560),#1490,#3850);
#3890=OVER_RIDING_STYLED_ITEM('',(#1870),#1800,#3850);
#3900=OVER_RIDING_STYLED_ITEM('',(#2180),#2110,#3850);
#3910=OVER_RIDING_STYLED_ITEM('',(#2660),#2590,#3850);
#3920=OVER_RIDING_STYLED_ITEM('',(#2900),#2830,#3850);
#3930=OVER_RIDING_STYLED_ITEM('',(#3140),#3070,#3850);
#3940=OVER_RIDING_STYLED_ITEM('',(#3330),#3260,#3850);
#3950=OVER_RIDING_STYLED_ITEM('',(#3520),#3450,#3850);
#3960=DRAUGHTING_MODEL('',(#3850,#3860,#3870,#3880,#3890,#3900,#3910,
#3920,#3930,#3940,#3950),#3740);
#3970=CARTESIAN_POINT('',(-53.17,34.1678327783261,31.7999999999896));
#3980=DIRECTION('',(1.,-1.11022302462516E-16,0.));
#3990=DIRECTION('',(1.11022302462516E-16,1.,0.));
#4000=AXIS2_PLACEMENT_3D('',#3970,#3980,#3990);
#4010=ITEM_DEFINED_TRANSFORMATION('DS-ST-2.5-SMALL-SELECT','',#3580,
#4000);
#4020=APPLICATION_CONTEXT(' ');
#4030=APPLICATION_PROTOCOL_DEFINITION(' ','automotive_design',1998,#4020
);
#4040=PRODUCT_CONTEXT('',#4020,'mechanical');
#4050=PRODUCT_DEFINITION_CONTEXT('part definition',#4020,'design');
#4060=PRODUCT('DS-ST-2.5-SMALL-SELECT','DS-ST-2.5-SMALL-SELECT','',(
#4040));
#4070=PRODUCT_RELATED_PRODUCT_CATEGORY('part',' ',(#4060));
#4080=PRODUCT_DEFINITION_FORMATION_WITH_SPECIFIED_SOURCE('','',#4060,
.BOUGHT.);
#4090=PRODUCT_DEFINITION('',' ',#4080,#4050);
#4100=PRODUCT_DEFINITION_SHAPE('','',#4090);
#4110=DIMENSIONAL_EXPONENTS(1.,0.,0.,0.,0.,0.,0.);
#4120=DIMENSIONAL_EXPONENTS(0.,0.,0.,0.,0.,0.,0.);
#4130=DIMENSIONAL_EXPONENTS(0.,0.,0.,0.,0.,0.,0.);
#4140=(LENGTH_UNIT() NAMED_UNIT(*) SI_UNIT(.MILLI.,.METRE.));
#4150=(NAMED_UNIT(*) PLANE_ANGLE_UNIT() SI_UNIT($,.RADIAN.));
#4160=(NAMED_UNIT(*) SI_UNIT($,.STERADIAN.) SOLID_ANGLE_UNIT());
#4170=(GEOMETRIC_REPRESENTATION_CONTEXT(3) 
GLOBAL_UNCERTAINTY_ASSIGNED_CONTEXT((#4180)) 
GLOBAL_UNIT_ASSIGNED_CONTEXT((#4140,#4150,#4160)) REPRESENTATION_CONTEXT
('',''));
#4180=UNCERTAINTY_MEASURE_WITH_UNIT(LENGTH_MEASURE(1.E-6),#4140,
'distance_accuracy_value','maximum gap value');
#4190=SHAPE_REPRESENTATION('',(#3580,#4000),#4170);
#4200=SHAPE_DEFINITION_REPRESENTATION(#4100,#4190);
#4210=(REPRESENTATION_RELATIONSHIP('','',#3760,#4190) 
REPRESENTATION_RELATIONSHIP_WITH_TRANSFORMATION(#4010) 
SHAPE_REPRESENTATION_RELATIONSHIP());
#4220=NEXT_ASSEMBLY_USAGE_OCCURRENCE('1','','DS-ST-2.5-SMALL-SELECT',
#4090,#3660,'');
#4230=PRODUCT_DEFINITION_SHAPE('','',#4220);
#4240=CONTEXT_DEPENDENT_SHAPE_REPRESENTATION(#4210,#4230);
ENDSEC;
END-ISO-10303-21;
