ISO-10303-21;
HEADER;
FILE_DESCRIPTION(('Creo Elements/Direct Modeling STEP Export'),'2;1');
FILE_NAME(
'D:/temp/JobSpoolerServerData/JobServer Files/6daf597e-f1d2-4d32-b554-8b
59adea443c/work/output/model.stp','2018-01-19T 9:05:32',(''),(''),
'Creo Elements/Direct Modeling STEP processor for AP214 (Solid Model)',
'Creo Elements/Direct Modeling 18.1I  14-Aug-2016 (C) Parametric Technol
ogy GmbH','');
FILE_SCHEMA(('AUTOMOTIVE_DESIGN { 1 0 10303 214 1 1 1 1 }'));
ENDSEC;
DATA;
#10=CARTESIAN_POINT('',(49.8009948260507,-18.727545769382,
-2.1316282072803E-14));
#20=DIRECTION('',(0.,0.,-1.));
#30=DIRECTION('',(-1.,0.,0.));
#40=AXIS2_PLACEMENT_3D('',#10,#20,#30);
#50=PLANE('',#40);
#60=CARTESIAN_POINT('',(47.920285,-58.2500000000077,-2.1316282072803E-14
));
#70=DIRECTION('',(1.,0.,0.));
#80=VECTOR('',#70,1.);
#90=LINE('',#60,#80);
#100=CARTESIAN_POINT('',(2.5296808260395,-58.2500000000077,
-2.1316282072803E-14));
#110=VERTEX_POINT('',#100);
#120=CARTESIAN_POINT('',(55.3296808260599,-58.2500000000077,
-2.1316282072803E-14));
#130=VERTEX_POINT('',#120);
#140=EDGE_CURVE('',#110,#130,#90,.T.);
#150=ORIENTED_EDGE('',*,*,#140,.F.);
#160=CARTESIAN_POINT('',(55.3296808260599,-33.886127,
-2.1316282072803E-14));
#170=DIRECTION('',(0.,1.,0.));
#180=VECTOR('',#170,1.);
#190=LINE('',#160,#180);
#200=CARTESIAN_POINT('',(55.3296808260598,-20.1500000000183,
-2.1316282072803E-14));
#210=VERTEX_POINT('',#200);
#220=EDGE_CURVE('',#130,#210,#190,.T.);
#230=ORIENTED_EDGE('',*,*,#220,.F.);
#240=CARTESIAN_POINT('',(69.0658078260289,-33.886127,
-2.1316282072803E-14));
#250=DIRECTION('',(-0.707106781186221,0.707106781186875,0.));
#260=VECTOR('',#250,1.);
#270=LINE('',#240,#260);
#280=CARTESIAN_POINT('',(46.1296808260581,-10.950000000008,
-2.1316282072803E-14));
#290=VERTEX_POINT('',#280);
#300=EDGE_CURVE('',#210,#290,#270,.T.);
#310=ORIENTED_EDGE('',*,*,#300,.F.);
#320=CARTESIAN_POINT('',(47.920285,-10.950000000008,-2.1316282072803E-14
));
#330=DIRECTION('',(1.,1.86726826201379E-30,0.));
#340=VECTOR('',#330,1.);
#350=LINE('',#320,#340);
#360=CARTESIAN_POINT('',(11.7296808260531,-10.950000000008,
-2.1316282072803E-14));
#370=VERTEX_POINT('',#360);
#380=EDGE_CURVE('',#370,#290,#350,.T.);
#390=ORIENTED_EDGE('',*,*,#380,.T.);
#400=CARTESIAN_POINT('',(-11.2064461739183,-33.886127,
-2.1316282072803E-14));
#410=DIRECTION('',(-0.707106781186231,-0.707106781186864,0.));
#420=VECTOR('',#410,1.);
#430=LINE('',#400,#420);
#440=CARTESIAN_POINT('',(2.5296808260395,-20.1500000000299,
-2.1316282072803E-14));
#450=VERTEX_POINT('',#440);
#460=EDGE_CURVE('',#370,#450,#430,.T.);
#470=ORIENTED_EDGE('',*,*,#460,.F.);
#480=CARTESIAN_POINT('',(2.5296808260395,-33.886127,-2.1316282072803E-14
));
#490=DIRECTION('',(0.,-1.,0.));
#500=VECTOR('',#490,1.);
#510=LINE('',#480,#500);
#520=EDGE_CURVE('',#450,#110,#510,.T.);
#530=ORIENTED_EDGE('',*,*,#520,.F.);
#540=EDGE_LOOP('',(#530,#470,#390,#310,#230,#150));
#550=FACE_OUTER_BOUND('',#540,.T.);
#560=ADVANCED_FACE('',(#550),#50,.T.);
#570=COLOUR_RGB('',0.560784339904785,0.588235318660736,0.600000023841858
);
#580=FILL_AREA_STYLE_COLOUR('',#570);
#590=FILL_AREA_STYLE('',(#580));
#600=SURFACE_STYLE_FILL_AREA(#590);
#610=SURFACE_SIDE_STYLE('',(#600));
#620=SURFACE_STYLE_USAGE(.BOTH.,#610);
#630=PRESENTATION_STYLE_ASSIGNMENT((#620));
#640=CARTESIAN_POINT('',(49.8009948260507,-18.727545769382,
2.19999999999998));
#650=DIRECTION('',(0.,0.,-1.));
#660=DIRECTION('',(-1.,0.,0.));
#670=AXIS2_PLACEMENT_3D('',#640,#650,#660);
#680=PLANE('',#670);
#690=CARTESIAN_POINT('',(2.5296808260395,-33.886127,2.19999999999998));
#700=DIRECTION('',(0.,-1.,0.));
#710=VECTOR('',#700,1.);
#720=LINE('',#690,#710);
#730=CARTESIAN_POINT('',(2.5296808260395,-20.1500000000299,
2.19999999999998));
#740=VERTEX_POINT('',#730);
#750=CARTESIAN_POINT('',(2.5296808260395,-58.2500000000077,
2.19999999999998));
#760=VERTEX_POINT('',#750);
#770=EDGE_CURVE('',#740,#760,#720,.T.);
#780=ORIENTED_EDGE('',*,*,#770,.T.);
#790=CARTESIAN_POINT('',(-11.2064461739183,-33.886127,2.19999999999998))
;
#800=DIRECTION('',(-0.707106781186231,-0.707106781186864,0.));
#810=VECTOR('',#800,1.);
#820=LINE('',#790,#810);
#830=CARTESIAN_POINT('',(11.7296808260531,-10.950000000008,
2.19999999999998));
#840=VERTEX_POINT('',#830);
#850=EDGE_CURVE('',#840,#740,#820,.T.);
#860=ORIENTED_EDGE('',*,*,#850,.T.);
#870=CARTESIAN_POINT('',(47.920285,-10.950000000008,2.19999999999998));
#880=DIRECTION('',(-1.,0.,0.));
#890=VECTOR('',#880,1.);
#900=LINE('',#870,#890);
#910=CARTESIAN_POINT('',(46.1296808260581,-10.950000000008,
2.19999999999998));
#920=VERTEX_POINT('',#910);
#930=EDGE_CURVE('',#920,#840,#900,.T.);
#940=ORIENTED_EDGE('',*,*,#930,.T.);
#950=CARTESIAN_POINT('',(69.0658078260289,-33.886127,2.19999999999998));
#960=DIRECTION('',(-0.707106781186221,0.707106781186875,0.));
#970=VECTOR('',#960,1.);
#980=LINE('',#950,#970);
#990=CARTESIAN_POINT('',(55.3296808260598,-20.1500000000183,
2.19999999999998));
#1000=VERTEX_POINT('',#990);
#1010=EDGE_CURVE('',#1000,#920,#980,.T.);
#1020=ORIENTED_EDGE('',*,*,#1010,.T.);
#1030=CARTESIAN_POINT('',(55.3296808260599,-33.886127,2.19999999999998))
;
#1040=DIRECTION('',(0.,1.,0.));
#1050=VECTOR('',#1040,1.);
#1060=LINE('',#1030,#1050);
#1070=CARTESIAN_POINT('',(55.3296808260599,-58.2500000000077,
2.19999999999998));
#1080=VERTEX_POINT('',#1070);
#1090=EDGE_CURVE('',#1080,#1000,#1060,.T.);
#1100=ORIENTED_EDGE('',*,*,#1090,.T.);
#1110=CARTESIAN_POINT('',(47.920285,-58.2500000000077,2.19999999999998))
;
#1120=DIRECTION('',(1.,0.,0.));
#1130=VECTOR('',#1120,1.);
#1140=LINE('',#1110,#1130);
#1150=EDGE_CURVE('',#760,#1080,#1140,.T.);
#1160=ORIENTED_EDGE('',*,*,#1150,.T.);
#1170=EDGE_LOOP('',(#1160,#1100,#1020,#940,#860,#780));
#1180=FACE_OUTER_BOUND('',#1170,.T.);
#1190=ADVANCED_FACE('',(#1180),#680,.F.);
#1200=COLOUR_RGB('',0.560784339904785,0.588235318660736,
0.600000023841858);
#1210=FILL_AREA_STYLE_COLOUR('',#1200);
#1220=FILL_AREA_STYLE('',(#1210));
#1230=SURFACE_STYLE_FILL_AREA(#1220);
#1240=SURFACE_SIDE_STYLE('',(#1230));
#1250=SURFACE_STYLE_USAGE(.BOTH.,#1240);
#1260=PRESENTATION_STYLE_ASSIGNMENT((#1250));
#1270=CARTESIAN_POINT('',(4.01288479353769,-18.6667960325303,-12.));
#1280=DIRECTION('',(-0.707106781186864,0.707106781186231,0.));
#1290=DIRECTION('',(-0.707106781186231,-0.707106781186864,0.));
#1300=AXIS2_PLACEMENT_3D('',#1270,#1280,#1290);
#1310=PLANE('',#1300);
#1320=CARTESIAN_POINT('',(11.7296808260531,-10.950000000008,
-2.8421709430404E-14));
#1330=DIRECTION('',(0.,0.,-1.));
#1340=VECTOR('',#1330,1.);
#1350=LINE('',#1320,#1340);
#1360=EDGE_CURVE('',#840,#370,#1350,.T.);
#1370=ORIENTED_EDGE('',*,*,#1360,.T.);
#1380=ORIENTED_EDGE('',*,*,#850,.F.);
#1390=CARTESIAN_POINT('',(2.5296808260395,-20.1500000000299,
-2.8421709430404E-14));
#1400=DIRECTION('',(0.,0.,-1.));
#1410=VECTOR('',#1400,1.);
#1420=LINE('',#1390,#1410);
#1430=EDGE_CURVE('',#740,#450,#1420,.T.);
#1440=ORIENTED_EDGE('',*,*,#1430,.F.);
#1450=ORIENTED_EDGE('',*,*,#460,.T.);
#1460=EDGE_LOOP('',(#1450,#1440,#1380,#1370));
#1470=FACE_OUTER_BOUND('',#1460,.T.);
#1480=ADVANCED_FACE('',(#1470),#1310,.T.);
#1490=COLOUR_RGB('',0.560784339904785,0.588235318660736,
0.600000023841858);
#1500=FILL_AREA_STYLE_COLOUR('',#1490);
#1510=FILL_AREA_STYLE('',(#1500));
#1520=SURFACE_STYLE_FILL_AREA(#1510);
#1530=SURFACE_SIDE_STYLE('',(#1520));
#1540=SURFACE_STYLE_USAGE(.BOTH.,#1530);
#1550=PRESENTATION_STYLE_ASSIGNMENT((#1540));
#1560=CARTESIAN_POINT('',(53.8012260387034,-18.6215452126605,
-3.90798504668055E-14));
#1570=DIRECTION('',(0.707106781186875,0.707106781186221,-0.));
#1580=DIRECTION('',(-0.707106781186221,0.707106781186875,0.));
#1590=AXIS2_PLACEMENT_3D('',#1560,#1570,#1580);
#1600=PLANE('',#1590);
#1610=CARTESIAN_POINT('',(55.3296808260599,-20.1500000000183,
-2.8421709430404E-14));
#1620=DIRECTION('',(0.,0.,1.));
#1630=VECTOR('',#1620,1.);
#1640=LINE('',#1610,#1630);
#1650=EDGE_CURVE('',#210,#1000,#1640,.T.);
#1660=ORIENTED_EDGE('',*,*,#1650,.F.);
#1670=ORIENTED_EDGE('',*,*,#1010,.F.);
#1680=CARTESIAN_POINT('',(46.1296808260581,-10.950000000008,
-2.8421709430404E-14));
#1690=DIRECTION('',(-1.22464679914622E-16,1.22464679914735E-16,1.));
#1700=VECTOR('',#1690,1.);
#1710=LINE('',#1680,#1700);
#1720=EDGE_CURVE('',#290,#920,#1710,.T.);
#1730=ORIENTED_EDGE('',*,*,#1720,.T.);
#1740=ORIENTED_EDGE('',*,*,#300,.T.);
#1750=EDGE_LOOP('',(#1740,#1730,#1670,#1660));
#1760=FACE_OUTER_BOUND('',#1750,.T.);
#1770=ADVANCED_FACE('',(#1760),#1600,.T.);
#1780=COLOUR_RGB('',0.560784339904785,0.588235318660736,
0.600000023841858);
#1790=FILL_AREA_STYLE_COLOUR('',#1780);
#1800=FILL_AREA_STYLE('',(#1790));
#1810=SURFACE_STYLE_FILL_AREA(#1800);
#1820=SURFACE_SIDE_STYLE('',(#1810));
#1830=SURFACE_STYLE_USAGE(.BOTH.,#1820);
#1840=PRESENTATION_STYLE_ASSIGNMENT((#1830));
#1850=CARTESIAN_POINT('',(10.3438943884329,-10.950000000008,
-11.9999999999995));
#1860=DIRECTION('',(1.86726826201379E-30,-1.,1.22464679914735E-16));
#1870=DIRECTION('',(1.,-1.86726826201379E-30,-3.04948049235724E-14));
#1880=AXIS2_PLACEMENT_3D('',#1850,#1860,#1870);
#1890=PLANE('',#1880);
#1900=ORIENTED_EDGE('',*,*,#1360,.F.);
#1910=ORIENTED_EDGE('',*,*,#380,.F.);
#1920=ORIENTED_EDGE('',*,*,#1720,.F.);
#1930=ORIENTED_EDGE('',*,*,#930,.F.);
#1940=EDGE_LOOP('',(#1930,#1920,#1910,#1900));
#1950=FACE_OUTER_BOUND('',#1940,.T.);
#1960=ADVANCED_FACE('',(#1950),#1890,.F.);
#1970=COLOUR_RGB('',0.560784339904785,0.588235318660736,
0.600000023841858);
#1980=FILL_AREA_STYLE_COLOUR('',#1970);
#1990=FILL_AREA_STYLE('',(#1980));
#2000=SURFACE_STYLE_FILL_AREA(#1990);
#2010=SURFACE_SIDE_STYLE('',(#2000));
#2020=SURFACE_STYLE_USAGE(.BOTH.,#2010);
#2030=PRESENTATION_STYLE_ASSIGNMENT((#2020));
#2040=CARTESIAN_POINT('',(55.3296808260599,-47.7128324408405,-12.));
#2050=DIRECTION('',(1.,0.,0.));
#2060=DIRECTION('',(0.,1.,0.));
#2070=AXIS2_PLACEMENT_3D('',#2040,#2050,#2060);
#2080=PLANE('',#2070);
#2090=ORIENTED_EDGE('',*,*,#1650,.T.);
#2100=ORIENTED_EDGE('',*,*,#220,.T.);
#2110=CARTESIAN_POINT('',(55.3296808260599,-58.2500000000077,
-2.8421709430404E-14));
#2120=DIRECTION('',(0.,0.,1.));
#2130=VECTOR('',#2120,1.);
#2140=LINE('',#2110,#2130);
#2150=EDGE_CURVE('',#130,#1080,#2140,.T.);
#2160=ORIENTED_EDGE('',*,*,#2150,.F.);
#2170=ORIENTED_EDGE('',*,*,#1090,.F.);
#2180=EDGE_LOOP('',(#2170,#2160,#2100,#2090));
#2190=FACE_OUTER_BOUND('',#2180,.T.);
#2200=ADVANCED_FACE('',(#2190),#2080,.T.);
#2210=COLOUR_RGB('',0.560784339904785,0.588235318660736,
0.600000023841858);
#2220=FILL_AREA_STYLE_COLOUR('',#2210);
#2230=FILL_AREA_STYLE('',(#2220));
#2240=SURFACE_STYLE_FILL_AREA(#2230);
#2250=SURFACE_SIDE_STYLE('',(#2240));
#2260=SURFACE_STYLE_USAGE(.BOTH.,#2250);
#2270=PRESENTATION_STYLE_ASSIGNMENT((#2260));
#2280=CARTESIAN_POINT('',(4.92968082605034,-58.2500000000077,
1.09999999999998));
#2290=DIRECTION('',(-0.,-1.,-0.));
#2300=DIRECTION('',(-1.,0.,0.));
#2310=AXIS2_PLACEMENT_3D('',#2280,#2290,#2300);
#2320=PLANE('',#2310);
#2330=CARTESIAN_POINT('',(2.5296808260395,-58.2500000000077,
-2.8421709430404E-14));
#2340=DIRECTION('',(0.,0.,-1.));
#2350=VECTOR('',#2340,1.);
#2360=LINE('',#2330,#2350);
#2370=EDGE_CURVE('',#760,#110,#2360,.T.);
#2380=ORIENTED_EDGE('',*,*,#2370,.T.);
#2390=ORIENTED_EDGE('',*,*,#1150,.F.);
#2400=ORIENTED_EDGE('',*,*,#2150,.T.);
#2410=ORIENTED_EDGE('',*,*,#140,.T.);
#2420=EDGE_LOOP('',(#2410,#2400,#2390,#2380));
#2430=FACE_OUTER_BOUND('',#2420,.T.);
#2440=ADVANCED_FACE('',(#2430),#2320,.T.);
#2450=COLOUR_RGB('',0.560784339904785,0.588235318660736,
0.600000023841858);
#2460=FILL_AREA_STYLE_COLOUR('',#2450);
#2470=FILL_AREA_STYLE('',(#2460));
#2480=SURFACE_STYLE_FILL_AREA(#2470);
#2490=SURFACE_SIDE_STYLE('',(#2480));
#2500=SURFACE_STYLE_USAGE(.BOTH.,#2490);
#2510=PRESENTATION_STYLE_ASSIGNMENT((#2500));
#2520=CARTESIAN_POINT('',(2.5296808260395,-47.815898769382,
-3.95239396766556E-14));
#2530=DIRECTION('',(-1.,0.,0.));
#2540=DIRECTION('',(0.,1.,0.));
#2550=AXIS2_PLACEMENT_3D('',#2520,#2530,#2540);
#2560=PLANE('',#2550);
#2570=ORIENTED_EDGE('',*,*,#520,.T.);
#2580=ORIENTED_EDGE('',*,*,#1430,.T.);
#2590=ORIENTED_EDGE('',*,*,#770,.F.);
#2600=ORIENTED_EDGE('',*,*,#2370,.F.);
#2610=EDGE_LOOP('',(#2600,#2590,#2580,#2570));
#2620=FACE_OUTER_BOUND('',#2610,.T.);
#2630=ADVANCED_FACE('',(#2620),#2560,.T.);
#2640=COLOUR_RGB('',0.560784339904785,0.588235318660736,
0.600000023841858);
#2650=FILL_AREA_STYLE_COLOUR('',#2640);
#2660=FILL_AREA_STYLE('',(#2650));
#2670=SURFACE_STYLE_FILL_AREA(#2660);
#2680=SURFACE_SIDE_STYLE('',(#2670));
#2690=SURFACE_STYLE_USAGE(.BOTH.,#2680);
#2700=PRESENTATION_STYLE_ASSIGNMENT((#2690));
#2710=CLOSED_SHELL('',(#560,#1190,#1480,#1770,#1960,#2200,#2440,#2630));
#2720=MANIFOLD_SOLID_BREP('',#2710);
#2730=CARTESIAN_POINT('',(0.,0.,0.));
#2740=DIRECTION('',(0.,0.,1.));
#2750=DIRECTION('',(1.,0.,0.));
#2760=AXIS2_PLACEMENT_3D('',#2730,#2740,#2750);
#2770=APPLICATION_CONTEXT(' ');
#2780=APPLICATION_PROTOCOL_DEFINITION(' ','automotive_design',1998,#2770
);
#2790=PRODUCT_CONTEXT('',#2770,'mechanical');
#2800=PRODUCT_DEFINITION_CONTEXT('part definition',#2770,'design');
#2810=PRODUCT('D_UT_16-select','D_UT_16-select','',(#2790));
#2820=PRODUCT_RELATED_PRODUCT_CATEGORY('part',' ',(#2810));
#2830=PRODUCT_DEFINITION_FORMATION_WITH_SPECIFIED_SOURCE('','',#2810,
.BOUGHT.);
#2840=PRODUCT_DEFINITION('',' ',#2830,#2800);
#2850=PRODUCT_DEFINITION_SHAPE('','',#2840);
#2860=DIMENSIONAL_EXPONENTS(1.,0.,0.,0.,0.,0.,0.);
#2870=DIMENSIONAL_EXPONENTS(0.,0.,0.,0.,0.,0.,0.);
#2880=DIMENSIONAL_EXPONENTS(0.,0.,0.,0.,0.,0.,0.);
#2890=(LENGTH_UNIT() NAMED_UNIT(*) SI_UNIT(.MILLI.,.METRE.));
#2900=(NAMED_UNIT(*) PLANE_ANGLE_UNIT() SI_UNIT($,.RADIAN.));
#2910=(NAMED_UNIT(*) SI_UNIT($,.STERADIAN.) SOLID_ANGLE_UNIT());
#2920=(GEOMETRIC_REPRESENTATION_CONTEXT(3) 
GLOBAL_UNCERTAINTY_ASSIGNED_CONTEXT((#2930)) 
GLOBAL_UNIT_ASSIGNED_CONTEXT((#2890,#2900,#2910)) REPRESENTATION_CONTEXT
('',''));
#2930=UNCERTAINTY_MEASURE_WITH_UNIT(LENGTH_MEASURE(1.E-6),#2890,
'distance_accuracy_value','maximum gap value');
#2940=ADVANCED_BREP_SHAPE_REPRESENTATION('',(#2760,#2720),#2920);
#2950=SHAPE_DEFINITION_REPRESENTATION(#2850,#2940);
#2960=COLOUR_RGB('',0.560784339904785,0.588235318660736,
0.600000023841858);
#2970=FILL_AREA_STYLE_COLOUR('',#2960);
#2980=FILL_AREA_STYLE('',(#2970));
#2990=SURFACE_STYLE_FILL_AREA(#2980);
#3000=SURFACE_SIDE_STYLE('',(#2990));
#3010=SURFACE_STYLE_USAGE(.BOTH.,#3000);
#3020=PRESENTATION_STYLE_ASSIGNMENT((#3010));
#3030=STYLED_ITEM('',(#3020),#2720);
#3040=OVER_RIDING_STYLED_ITEM('',(#630),#560,#3030);
#3050=OVER_RIDING_STYLED_ITEM('',(#1260),#1190,#3030);
#3060=OVER_RIDING_STYLED_ITEM('',(#1550),#1480,#3030);
#3070=OVER_RIDING_STYLED_ITEM('',(#1840),#1770,#3030);
#3080=OVER_RIDING_STYLED_ITEM('',(#2030),#1960,#3030);
#3090=OVER_RIDING_STYLED_ITEM('',(#2270),#2200,#3030);
#3100=OVER_RIDING_STYLED_ITEM('',(#2510),#2440,#3030);
#3110=OVER_RIDING_STYLED_ITEM('',(#2700),#2630,#3030);
#3120=DRAUGHTING_MODEL('',(#3030,#3040,#3050,#3060,#3070,#3080,#3090,
#3100,#3110),#2920);
#3130=CARTESIAN_POINT('',(2.1316282072803E-14,-2.5296808260395,
58.2500000000074));
#3140=DIRECTION('',(1.,0.,0.));
#3150=DIRECTION('',(0.,1.,0.));
#3160=AXIS2_PLACEMENT_3D('',#3130,#3140,#3150);
#3170=ITEM_DEFINED_TRANSFORMATION('D_UT_16-select','',#2760,#3160);
#3180=APPLICATION_CONTEXT(' ');
#3190=APPLICATION_PROTOCOL_DEFINITION(' ','automotive_design',1998,#3180
);
#3200=PRODUCT_CONTEXT('',#3180,'mechanical');
#3210=PRODUCT_DEFINITION_CONTEXT('part definition',#3180,'design');
#3220=PRODUCT('D_UT_16-select','D_UT_16-select','',(#3200));
#3230=PRODUCT_RELATED_PRODUCT_CATEGORY('part',' ',(#3220));
#3240=PRODUCT_DEFINITION_FORMATION_WITH_SPECIFIED_SOURCE('','',#3220,
.BOUGHT.);
#3250=PRODUCT_DEFINITION('',' ',#3240,#3210);
#3260=PRODUCT_DEFINITION_SHAPE('','',#3250);
#3270=DIMENSIONAL_EXPONENTS(1.,0.,0.,0.,0.,0.,0.);
#3280=DIMENSIONAL_EXPONENTS(0.,0.,0.,0.,0.,0.,0.);
#3290=DIMENSIONAL_EXPONENTS(0.,0.,0.,0.,0.,0.,0.);
#3300=(LENGTH_UNIT() NAMED_UNIT(*) SI_UNIT(.MILLI.,.METRE.));
#3310=(NAMED_UNIT(*) PLANE_ANGLE_UNIT() SI_UNIT($,.RADIAN.));
#3320=(NAMED_UNIT(*) SI_UNIT($,.STERADIAN.) SOLID_ANGLE_UNIT());
#3330=(GEOMETRIC_REPRESENTATION_CONTEXT(3) 
GLOBAL_UNCERTAINTY_ASSIGNED_CONTEXT((#3340)) 
GLOBAL_UNIT_ASSIGNED_CONTEXT((#3300,#3310,#3320)) REPRESENTATION_CONTEXT
('',''));
#3340=UNCERTAINTY_MEASURE_WITH_UNIT(LENGTH_MEASURE(1.E-6),#3300,
'distance_accuracy_value','maximum gap value');
#3350=SHAPE_REPRESENTATION('',(#2760,#3160),#3330);
#3360=SHAPE_DEFINITION_REPRESENTATION(#3260,#3350);
#3370=(REPRESENTATION_RELATIONSHIP('','',#2940,#3350) 
REPRESENTATION_RELATIONSHIP_WITH_TRANSFORMATION(#3170) 
SHAPE_REPRESENTATION_RELATIONSHIP());
#3380=NEXT_ASSEMBLY_USAGE_OCCURRENCE('1','','D_UT_16-select',#3250,#2840
,'');
#3390=PRODUCT_DEFINITION_SHAPE('','',#3380);
#3400=CONTEXT_DEPENDENT_SHAPE_REPRESENTATION(#3370,#3390);
ENDSEC;
END-ISO-10303-21;
