ISO-10303-21;
HEADER;
FILE_DESCRIPTION(('Creo Elements/Direct Modeling STEP Export'),'2;1');
FILE_NAME(
'D:/temp/JobSpoolerServerData/JobServer Files/f8b97999-67d3-4368-b1d8-a3
9dcc48276e/work/output/model.stp','2017-10-20T15:41:12',(''),(''),
'Creo Elements/Direct Modeling STEP processor for AP214 (Solid Model)',
'Creo Elements/Direct Modeling 18.1I  14-Aug-2016 (C) Parametric Technol
ogy GmbH','');
FILE_SCHEMA(('AUTOMOTIVE_DESIGN { 1 0 10303 214 1 1 1 1 }'));
ENDSEC;
DATA;
#10=CARTESIAN_POINT('',(50.9499999974662,8.41207676944737,
12.1999999998556));
#20=DIRECTION('',(-1.,1.18901425788236E-10,2.09596185642923E-12));
#30=DIRECTION('',(1.18901425788236E-10,1.,-2.44811802202566E-22));
#40=AXIS2_PLACEMENT_3D('',#10,#20,#30);
#50=PLANE('',#40);
#60=CARTESIAN_POINT('',(50.9499999971176,5.51914471553273,
9.99999999991271));
#70=DIRECTION('',(-8.07793566946316E-28,4.8962262936908E-22,1.));
#80=VECTOR('',#70,1.);
#90=LINE('',#60,#80);
#100=CARTESIAN_POINT('',(50.9499999971176,5.51914471553273,
10.0000000006157));
#110=VERTEX_POINT('',#100);
#120=CARTESIAN_POINT('',(50.9499999971222,5.51914471553273,12.2));
#130=VERTEX_POINT('',#120);
#140=EDGE_CURVE('',#110,#130,#90,.T.);
#150=ORIENTED_EDGE('',*,*,#140,.T.);
#160=CARTESIAN_POINT('',(50.9500000008956,37.2937261640234,
10.0000000005793));
#170=DIRECTION('',(1.18901425788236E-10,1.,0.));
#180=VECTOR('',#170,1.);
#190=LINE('',#160,#180);
#200=CARTESIAN_POINT('',(50.9499999968433,3.21207678098301,
10.0000000006157));
#210=VERTEX_POINT('',#200);
#220=EDGE_CURVE('',#210,#110,#190,.T.);
#230=ORIENTED_EDGE('',*,*,#220,.T.);
#240=CARTESIAN_POINT('',(50.9499999968433,3.21207678098301,10.));
#250=DIRECTION('',(2.09596185650362E-12,6.25652829374428E-13,1.));
#260=VECTOR('',#250,1.);
#270=LINE('',#240,#260);
#280=CARTESIAN_POINT('',(50.9499999968479,3.21207678098439,12.2));
#290=VERTEX_POINT('',#280);
#300=EDGE_CURVE('',#210,#290,#270,.T.);
#310=ORIENTED_EDGE('',*,*,#300,.F.);
#320=CARTESIAN_POINT('',(50.9500000009002,37.2937261640234,
12.1999999999556));
#330=DIRECTION('',(-1.18901425788236E-10,-1.,0.));
#340=VECTOR('',#330,1.);
#350=LINE('',#320,#340);
#360=EDGE_CURVE('',#130,#290,#350,.T.);
#370=ORIENTED_EDGE('',*,*,#360,.T.);
#380=EDGE_LOOP('',(#370,#310,#230,#150));
#390=FACE_OUTER_BOUND('',#380,.T.);
#400=ADVANCED_FACE('',(#390),#50,.F.);
#410=COLOUR_RGB('',0.560784339904785,0.588235318660736,0.600000023841858
);
#420=FILL_AREA_STYLE_COLOUR('',#410);
#430=FILL_AREA_STYLE('',(#420));
#440=SURFACE_STYLE_FILL_AREA(#430);
#450=SURFACE_SIDE_STYLE('',(#440));
#460=SURFACE_STYLE_USAGE(.BOTH.,#450);
#470=PRESENTATION_STYLE_ASSIGNMENT((#460));
#480=CARTESIAN_POINT('',(11.2793986286537,-8.6297532179638,
10.0000000000001));
#490=DIRECTION('',(-0.286032409049675,0.958219943944625,
-8.40573702474957E-40));
#500=DIRECTION('',(0.958219943944625,0.286032409049675,
1.26217744835362E-29));
#510=AXIS2_PLACEMENT_3D('',#480,#490,#500);
#520=PLANE('',#510);
#530=CARTESIAN_POINT('',(33.7829296489451,-1.91236100489792,
10.0000000005793));
#540=DIRECTION('',(0.958219943944625,0.286032409049675,0.));
#550=VECTOR('',#540,1.);
#560=LINE('',#530,#550);
#570=CARTESIAN_POINT('',(40.8998806866903,0.212076775049276,
10.0000000006157));
#580=VERTEX_POINT('',#570);
#590=EDGE_CURVE('',#580,#210,#560,.T.);
#600=ORIENTED_EDGE('',*,*,#590,.T.);
#610=CARTESIAN_POINT('',(40.8998806866904,0.212076775049276,10.));
#620=DIRECTION('',(8.20129271607628E-22,2.44811802105052E-22,1.));
#630=VECTOR('',#620,1.);
#640=LINE('',#610,#630);
#650=CARTESIAN_POINT('',(40.8998806866903,0.212076775049276,12.2));
#660=VERTEX_POINT('',#650);
#670=EDGE_CURVE('',#580,#660,#640,.T.);
#680=ORIENTED_EDGE('',*,*,#670,.F.);
#690=CARTESIAN_POINT('',(33.7829296489451,-1.91236100489792,
12.1999999999556));
#700=DIRECTION('',(-0.958219943944625,-0.286032409049675,0.));
#710=VECTOR('',#700,1.);
#720=LINE('',#690,#710);
#730=EDGE_CURVE('',#290,#660,#720,.T.);
#740=ORIENTED_EDGE('',*,*,#730,.T.);
#750=ORIENTED_EDGE('',*,*,#300,.T.);
#760=EDGE_LOOP('',(#750,#740,#680,#600));
#770=FACE_OUTER_BOUND('',#760,.T.);
#780=ADVANCED_FACE('',(#770),#520,.F.);
#790=COLOUR_RGB('',0.560784339904785,0.588235318660736,0.600000023841858
);
#800=FILL_AREA_STYLE_COLOUR('',#790);
#810=FILL_AREA_STYLE('',(#800));
#820=SURFACE_STYLE_FILL_AREA(#810);
#830=SURFACE_SIDE_STYLE('',(#820));
#840=SURFACE_STYLE_USAGE(.BOTH.,#830);
#850=PRESENTATION_STYLE_ASSIGNMENT((#840));
#860=CARTESIAN_POINT('',(-48.6353872166166,16.1620767807484,12.2));
#870=DIRECTION('',(0.,0.,1.));
#880=DIRECTION('',(1.,-2.09977624885101E-12,0.));
#890=AXIS2_PLACEMENT_3D('',#860,#870,#880);
#900=CYLINDRICAL_SURFACE('',#890,13.1999999999987);
#910=CARTESIAN_POINT('',(-48.6353872166166,16.1620767807484,12.2));
#920=DIRECTION('',(0.,0.,1.));
#930=DIRECTION('',(1.,-2.09977624885101E-12,0.));
#940=AXIS2_PLACEMENT_3D('',#910,#920,#930);
#950=CIRCLE('',#940,13.1999999999987);
#960=CARTESIAN_POINT('',(-37.9500000007768,8.41207677768167,12.2));
#970=VERTEX_POINT('',#960);
#980=CARTESIAN_POINT('',(-37.9500000007443,23.9120767837702,12.2));
#990=VERTEX_POINT('',#980);
#1000=EDGE_CURVE('',#970,#990,#950,.T.);
#1010=ORIENTED_EDGE('',*,*,#1000,.T.);
#1020=CARTESIAN_POINT('',(-37.9500000007768,8.41207677768167,12.2));
#1030=DIRECTION('',(0.,0.,1.));
#1040=VECTOR('',#1030,1.);
#1050=LINE('',#1020,#1040);
#1060=CARTESIAN_POINT('',(-37.9500000007768,8.41207677768167,
10.0000000006157));
#1070=VERTEX_POINT('',#1060);
#1080=EDGE_CURVE('',#1070,#970,#1050,.T.);
#1090=ORIENTED_EDGE('',*,*,#1080,.T.);
#1100=CARTESIAN_POINT('',(-48.6353872166166,16.1620767807484,10.));
#1110=DIRECTION('',(0.,0.,1.));
#1120=DIRECTION('',(1.,-2.09977624885101E-12,0.));
#1130=AXIS2_PLACEMENT_3D('',#1100,#1110,#1120);
#1140=CIRCLE('',#1130,13.1999999999987);
#1150=CARTESIAN_POINT('',(-37.9500000007443,23.9120767837702,
10.0000000006157));
#1160=VERTEX_POINT('',#1150);
#1170=EDGE_CURVE('',#1070,#1160,#1140,.T.);
#1180=ORIENTED_EDGE('',*,*,#1170,.F.);
#1190=CARTESIAN_POINT('',(-37.9500000007443,23.9120767837702,12.2));
#1200=DIRECTION('',(0.,0.,1.));
#1210=VECTOR('',#1200,1.);
#1220=LINE('',#1190,#1210);
#1230=EDGE_CURVE('',#1160,#990,#1220,.T.);
#1240=ORIENTED_EDGE('',*,*,#1230,.F.);
#1250=EDGE_LOOP('',(#1240,#1180,#1090,#1010));
#1260=FACE_OUTER_BOUND('',#1250,.T.);
#1270=ADVANCED_FACE('',(#1260),#900,.F.);
#1280=COLOUR_RGB('',0.560784339904785,0.588235318660736,
0.600000023841858);
#1290=FILL_AREA_STYLE_COLOUR('',#1280);
#1300=FILL_AREA_STYLE('',(#1290));
#1310=SURFACE_STYLE_FILL_AREA(#1300);
#1320=SURFACE_SIDE_STYLE('',(#1310));
#1330=SURFACE_STYLE_USAGE(.BOTH.,#1320);
#1340=PRESENTATION_STYLE_ASSIGNMENT((#1330));
#1350=CARTESIAN_POINT('',(49.6933963675236,42.8120767655651,
12.1999999998582));
#1360=DIRECTION('',(-0.984807753053063,-0.173648177435231,
2.06411948631423E-12));
#1370=DIRECTION('',(-0.173648177435231,0.984807753053063,
3.63959956347034E-13));
#1380=AXIS2_PLACEMENT_3D('',#1350,#1360,#1370);
#1390=PLANE('',#1380);
#1400=CARTESIAN_POINT('',(49.6933963665625,42.8120767709897,10.));
#1410=DIRECTION('',(2.09596185642923E-12,-4.40087359347465E-24,1.));
#1420=VECTOR('',#1410,1.);
#1430=LINE('',#1400,#1420);
#1440=CARTESIAN_POINT('',(49.6933963665625,42.8120767709897,
10.0000000006157));
#1450=VERTEX_POINT('',#1440);
#1460=CARTESIAN_POINT('',(49.6933963665671,42.8120767709897,12.2));
#1470=VERTEX_POINT('',#1460);
#1480=EDGE_CURVE('',#1450,#1470,#1430,.T.);
#1490=ORIENTED_EDGE('',*,*,#1480,.T.);
#1500=CARTESIAN_POINT('',(50.6664304662409,37.2937261640234,
9.99999999995556));
#1510=DIRECTION('',(-0.173648177435231,0.984807753053063,0.));
#1520=VECTOR('',#1510,1.);
#1530=LINE('',#1500,#1520);
#1540=CARTESIAN_POINT('',(50.9500000007044,35.6855234164103,
10.0000000006157));
#1550=VERTEX_POINT('',#1540);
#1560=EDGE_CURVE('',#1550,#1450,#1530,.T.);
#1570=ORIENTED_EDGE('',*,*,#1560,.T.);
#1580=CARTESIAN_POINT('',(50.9500000007044,35.6855234164103,10.));
#1590=DIRECTION('',(2.09596185642923E-12,-4.40094967487707E-24,1.));
#1600=VECTOR('',#1590,1.);
#1610=LINE('',#1580,#1600);
#1620=CARTESIAN_POINT('',(50.950000000709,35.6855234164103,12.2));
#1630=VERTEX_POINT('',#1620);
#1640=EDGE_CURVE('',#1550,#1630,#1610,.T.);
#1650=ORIENTED_EDGE('',*,*,#1640,.F.);
#1660=CARTESIAN_POINT('',(55.7982242447817,8.18987736574276,
12.1999999998454));
#1670=DIRECTION('',(0.173648177435231,-0.984807753053063,
-3.63959956347034E-13));
#1680=VECTOR('',#1670,1.);
#1690=LINE('',#1660,#1680);
#1700=EDGE_CURVE('',#1470,#1630,#1690,.T.);
#1710=ORIENTED_EDGE('',*,*,#1700,.T.);
#1720=EDGE_LOOP('',(#1710,#1650,#1570,#1490));
#1730=FACE_OUTER_BOUND('',#1720,.T.);
#1740=ADVANCED_FACE('',(#1730),#1390,.F.);
#1750=COLOUR_RGB('',0.560784339904785,0.588235318660736,
0.600000023841858);
#1760=FILL_AREA_STYLE_COLOUR('',#1750);
#1770=FILL_AREA_STYLE('',(#1760));
#1780=SURFACE_STYLE_FILL_AREA(#1770);
#1790=SURFACE_SIDE_STYLE('',(#1780));
#1800=SURFACE_STYLE_USAGE(.BOTH.,#1790);
#1810=PRESENTATION_STYLE_ASSIGNMENT((#1800));
#1820=CARTESIAN_POINT('',(-6.75000000068406,42.8120767711083,
12.1999999999556));
#1830=DIRECTION('',(2.09977624885101E-12,1.,0.));
#1840=DIRECTION('',(1.,-2.09977624885101E-12,0.));
#1850=AXIS2_PLACEMENT_3D('',#1820,#1830,#1840);
#1860=PLANE('',#1850);
#1870=CARTESIAN_POINT('',(-36.6933963671084,42.8120767711711,10.));
#1880=DIRECTION('',(0.,0.,1.));
#1890=VECTOR('',#1880,1.);
#1900=LINE('',#1870,#1890);
#1910=CARTESIAN_POINT('',(-36.6933963671084,42.8120767711711,
10.0000000006157));
#1920=VERTEX_POINT('',#1910);
#1930=CARTESIAN_POINT('',(-36.6933963671084,42.8120767711711,12.2));
#1940=VERTEX_POINT('',#1930);
#1950=EDGE_CURVE('',#1920,#1940,#1900,.T.);
#1960=ORIENTED_EDGE('',*,*,#1950,.T.);
#1970=CARTESIAN_POINT('',(12.5829296489246,42.8120767735439,10.));
#1980=DIRECTION('',(1.,-2.09977624885101E-12,0.));
#1990=VECTOR('',#1980,1.);
#2000=LINE('',#1970,#1990);
#2010=EDGE_CURVE('',#1920,#1450,#2000,.T.);
#2020=ORIENTED_EDGE('',*,*,#2010,.F.);
#2030=ORIENTED_EDGE('',*,*,#1480,.F.);
#2040=CARTESIAN_POINT('',(-27.3973185832085,42.8120767736278,12.2));
#2050=DIRECTION('',(-1.,2.09977624885101E-12,0.));
#2060=VECTOR('',#2050,1.);
#2070=LINE('',#2040,#2060);
#2080=EDGE_CURVE('',#1470,#1940,#2070,.T.);
#2090=ORIENTED_EDGE('',*,*,#2080,.F.);
#2100=EDGE_LOOP('',(#2090,#2030,#2020,#1960));
#2110=FACE_OUTER_BOUND('',#2100,.T.);
#2120=ADVANCED_FACE('',(#2110),#1860,.T.);
#2130=COLOUR_RGB('',0.560784339904785,0.588235318660736,
0.600000023841858);
#2140=FILL_AREA_STYLE_COLOUR('',#2130);
#2150=FILL_AREA_STYLE('',(#2140));
#2160=SURFACE_STYLE_FILL_AREA(#2150);
#2170=SURFACE_SIDE_STYLE('',(#2160));
#2180=SURFACE_STYLE_USAGE(.BOTH.,#2170);
#2190=PRESENTATION_STYLE_ASSIGNMENT((#2180));
#2200=CARTESIAN_POINT('',(19.775455973318,28.8698277751532,
10.0000000006157));
#2210=DIRECTION('',(0.,0.,-1.));
#2220=DIRECTION('',(-1.,2.09977624885101E-12,0.));
#2230=AXIS2_PLACEMENT_3D('',#2200,#2210,#2220);
#2240=PLANE('',#2230);
#2250=CARTESIAN_POINT('',(50.9500000008956,37.2937261640234,
9.99999999995556));
#2260=DIRECTION('',(1.18901425788236E-10,1.,0.));
#2270=VECTOR('',#2260,1.);
#2280=LINE('',#2250,#2270);
#2290=CARTESIAN_POINT('',(50.9499999993037,23.9050088454607,
10.0000000006157));
#2300=VERTEX_POINT('',#2290);
#2310=EDGE_CURVE('',#2300,#1550,#2280,.T.);
#2320=ORIENTED_EDGE('',*,*,#2310,.F.);
#2330=ORIENTED_EDGE('',*,*,#1560,.F.);
#2340=ORIENTED_EDGE('',*,*,#2010,.T.);
#2350=CARTESIAN_POINT('',(-37.6664304670628,37.2937261665441,10.));
#2360=DIRECTION('',(0.173648177554394,0.984807753032051,0.));
#2370=VECTOR('',#2360,1.);
#2380=LINE('',#2350,#2370);
#2390=CARTESIAN_POINT('',(-37.9500000007196,35.6855234246446,
10.0000000006157));
#2400=VERTEX_POINT('',#2390);
#2410=EDGE_CURVE('',#2400,#1920,#2380,.T.);
#2420=ORIENTED_EDGE('',*,*,#2410,.T.);
#2430=CARTESIAN_POINT('',(-37.9500000007162,37.2937261665441,10.));
#2440=DIRECTION('',(2.09977624885101E-12,1.,0.));
#2450=VECTOR('',#2440,1.);
#2460=LINE('',#2430,#2450);
#2470=EDGE_CURVE('',#1160,#2400,#2460,.T.);
#2480=ORIENTED_EDGE('',*,*,#2470,.T.);
#2490=ORIENTED_EDGE('',*,*,#1170,.T.);
#2500=CARTESIAN_POINT('',(-37.9500000007162,37.2937261665441,10.));
#2510=DIRECTION('',(2.09977624885101E-12,1.,0.));
#2520=VECTOR('',#2510,1.);
#2530=LINE('',#2500,#2520);
#2540=CARTESIAN_POINT('',(-37.950000000794,0.212076784424639,
10.0000000006157));
#2550=VERTEX_POINT('',#2540);
#2560=EDGE_CURVE('',#2550,#1070,#2530,.T.);
#2570=ORIENTED_EDGE('',*,*,#2560,.T.);
#2580=CARTESIAN_POINT('',(12.5829296489246,0.212076778416204,10.));
#2590=DIRECTION('',(1.,-1.18901425788236E-10,0.));
#2600=VECTOR('',#2590,1.);
#2610=LINE('',#2580,#2600);
#2620=EDGE_CURVE('',#2550,#580,#2610,.T.);
#2630=ORIENTED_EDGE('',*,*,#2620,.F.);
#2640=ORIENTED_EDGE('',*,*,#590,.F.);
#2650=ORIENTED_EDGE('',*,*,#220,.F.);
#2660=CARTESIAN_POINT('',(65.2499999999224,14.7120767787964,
9.99999999995556));
#2670=DIRECTION('',(-8.07793566946316E-28,4.8962262936908E-22,1.));
#2680=DIRECTION('',(1.,-4.19733205165281E-12,8.07795622055071E-28));
#2690=AXIS2_PLACEMENT_3D('',#2660,#2670,#2680);
#2700=CIRCLE('',#2690,17.);
#2710=EDGE_CURVE('',#2300,#110,#2700,.T.);
#2720=ORIENTED_EDGE('',*,*,#2710,.T.);
#2730=EDGE_LOOP('',(#2720,#2650,#2640,#2630,#2570,#2490,#2480,#2420,
#2340,#2330,#2320));
#2740=FACE_OUTER_BOUND('',#2730,.T.);
#2750=ADVANCED_FACE('',(#2740),#2240,.T.);
#2760=COLOUR_RGB('',0.560784339904785,0.588235318660736,
0.600000023841858);
#2770=FILL_AREA_STYLE_COLOUR('',#2760);
#2780=FILL_AREA_STYLE('',(#2770));
#2790=SURFACE_STYLE_FILL_AREA(#2780);
#2800=SURFACE_SIDE_STYLE('',(#2790));
#2810=SURFACE_STYLE_USAGE(.BOTH.,#2800);
#2820=PRESENTATION_STYLE_ASSIGNMENT((#2810));
#2830=CARTESIAN_POINT('',(-37.9500000007768,8.41207677768167,12.2));
#2840=DIRECTION('',(-1.,2.09977624885101E-12,0.));
#2850=DIRECTION('',(2.09977624885101E-12,1.,0.));
#2860=AXIS2_PLACEMENT_3D('',#2830,#2840,#2850);
#2870=PLANE('',#2860);
#2880=CARTESIAN_POINT('',(-37.9500000007773,8.18987737455352,12.2));
#2890=DIRECTION('',(-2.09977624885101E-12,-1.,0.));
#2900=VECTOR('',#2890,1.);
#2910=LINE('',#2880,#2900);
#2920=CARTESIAN_POINT('',(-37.950000000794,0.212076784424639,12.2));
#2930=VERTEX_POINT('',#2920);
#2940=EDGE_CURVE('',#970,#2930,#2910,.T.);
#2950=ORIENTED_EDGE('',*,*,#2940,.F.);
#2960=CARTESIAN_POINT('',(-37.950000000794,0.212076784424639,10.));
#2970=DIRECTION('',(5.14067189501603E-34,2.44811802202566E-22,1.));
#2980=VECTOR('',#2970,1.);
#2990=LINE('',#2960,#2980);
#3000=EDGE_CURVE('',#2550,#2930,#2990,.T.);
#3010=ORIENTED_EDGE('',*,*,#3000,.T.);
#3020=ORIENTED_EDGE('',*,*,#2560,.F.);
#3030=ORIENTED_EDGE('',*,*,#1080,.F.);
#3040=EDGE_LOOP('',(#3030,#3020,#3010,#2950));
#3050=FACE_OUTER_BOUND('',#3040,.T.);
#3060=ADVANCED_FACE('',(#3050),#2870,.T.);
#3070=COLOUR_RGB('',0.560784339904785,0.588235318660736,
0.600000023841858);
#3080=FILL_AREA_STYLE_COLOUR('',#3070);
#3090=FILL_AREA_STYLE('',(#3080));
#3100=SURFACE_STYLE_FILL_AREA(#3090);
#3110=SURFACE_SIDE_STYLE('',(#3100));
#3120=SURFACE_STYLE_USAGE(.BOTH.,#3110);
#3130=PRESENTATION_STYLE_ASSIGNMENT((#3120));
#3140=CARTESIAN_POINT('',(29.7499999964706,0.212076776375014,
12.1999999999));
#3150=DIRECTION('',(1.18901425788236E-10,1.,-2.44811802202566E-22));
#3160=DIRECTION('',(1.,-1.18901425788236E-10,-2.09596185642923E-12));
#3170=AXIS2_PLACEMENT_3D('',#3140,#3150,#3160);
#3180=PLANE('',#3170);
#3190=CARTESIAN_POINT('',(12.5829296489246,0.212076778416204,12.2));
#3200=DIRECTION('',(1.,-1.18901425788236E-10,0.));
#3210=VECTOR('',#3200,1.);
#3220=LINE('',#3190,#3210);
#3230=EDGE_CURVE('',#2930,#660,#3220,.T.);
#3240=ORIENTED_EDGE('',*,*,#3230,.F.);
#3250=ORIENTED_EDGE('',*,*,#670,.T.);
#3260=ORIENTED_EDGE('',*,*,#2620,.T.);
#3270=ORIENTED_EDGE('',*,*,#3000,.F.);
#3280=EDGE_LOOP('',(#3270,#3260,#3250,#3240));
#3290=FACE_OUTER_BOUND('',#3280,.T.);
#3300=ADVANCED_FACE('',(#3290),#3180,.F.);
#3310=COLOUR_RGB('',0.560784339904785,0.588235318660736,
0.600000023841858);
#3320=FILL_AREA_STYLE_COLOUR('',#3310);
#3330=FILL_AREA_STYLE('',(#3320));
#3340=SURFACE_STYLE_FILL_AREA(#3330);
#3350=SURFACE_SIDE_STYLE('',(#3340));
#3360=SURFACE_STYLE_USAGE(.BOTH.,#3350);
#3370=PRESENTATION_STYLE_ASSIGNMENT((#3360));
#3380=CARTESIAN_POINT('',(-36.6933963666718,42.8120767736473,12.2));
#3390=DIRECTION('',(-0.984807753032051,0.173648177554394,0.));
#3400=DIRECTION('',(0.173648177554394,0.984807753032051,0.));
#3410=AXIS2_PLACEMENT_3D('',#3380,#3390,#3400);
#3420=PLANE('',#3410);
#3430=CARTESIAN_POINT('',(-42.7982242481193,8.1898773745637,12.2));
#3440=DIRECTION('',(-0.173648177554394,-0.984807753032051,0.));
#3450=VECTOR('',#3440,1.);
#3460=LINE('',#3430,#3450);
#3470=CARTESIAN_POINT('',(-37.9500000007196,35.6855234246446,12.2));
#3480=VERTEX_POINT('',#3470);
#3490=EDGE_CURVE('',#1940,#3480,#3460,.T.);
#3500=ORIENTED_EDGE('',*,*,#3490,.F.);
#3510=CARTESIAN_POINT('',(-37.9500000007196,35.6855234246446,10.));
#3520=DIRECTION('',(0.,0.,-1.));
#3530=VECTOR('',#3520,1.);
#3540=LINE('',#3510,#3530);
#3550=EDGE_CURVE('',#3480,#2400,#3540,.T.);
#3560=ORIENTED_EDGE('',*,*,#3550,.F.);
#3570=ORIENTED_EDGE('',*,*,#2410,.F.);
#3580=ORIENTED_EDGE('',*,*,#1950,.F.);
#3590=EDGE_LOOP('',(#3580,#3570,#3560,#3500));
#3600=FACE_OUTER_BOUND('',#3590,.T.);
#3610=ADVANCED_FACE('',(#3600),#3420,.T.);
#3620=COLOUR_RGB('',0.560784339904785,0.588235318660736,
0.600000023841858);
#3630=FILL_AREA_STYLE_COLOUR('',#3620);
#3640=FILL_AREA_STYLE('',(#3630));
#3650=SURFACE_STYLE_FILL_AREA(#3640);
#3660=SURFACE_SIDE_STYLE('',(#3650));
#3670=SURFACE_STYLE_USAGE(.BOTH.,#3660);
#3680=PRESENTATION_STYLE_ASSIGNMENT((#3670));
#3690=CARTESIAN_POINT('',(-37.9500000007196,35.6855234246446,12.2));
#3700=DIRECTION('',(-1.,2.09977624885101E-12,0.));
#3710=DIRECTION('',(2.09977624885101E-12,1.,0.));
#3720=AXIS2_PLACEMENT_3D('',#3690,#3700,#3710);
#3730=PLANE('',#3720);
#3740=CARTESIAN_POINT('',(-37.9500000007773,8.18987737455352,12.2));
#3750=DIRECTION('',(-2.09977624885101E-12,-1.,0.));
#3760=VECTOR('',#3750,1.);
#3770=LINE('',#3740,#3760);
#3780=EDGE_CURVE('',#3480,#990,#3770,.T.);
#3790=ORIENTED_EDGE('',*,*,#3780,.F.);
#3800=ORIENTED_EDGE('',*,*,#1230,.T.);
#3810=ORIENTED_EDGE('',*,*,#2470,.F.);
#3820=ORIENTED_EDGE('',*,*,#3550,.T.);
#3830=EDGE_LOOP('',(#3820,#3810,#3800,#3790));
#3840=FACE_OUTER_BOUND('',#3830,.T.);
#3850=ADVANCED_FACE('',(#3840),#3730,.T.);
#3860=COLOUR_RGB('',0.560784339904785,0.588235318660736,
0.600000023841858);
#3870=FILL_AREA_STYLE_COLOUR('',#3860);
#3880=FILL_AREA_STYLE('',(#3870));
#3890=SURFACE_STYLE_FILL_AREA(#3880);
#3900=SURFACE_SIDE_STYLE('',(#3890));
#3910=SURFACE_STYLE_USAGE(.BOTH.,#3900);
#3920=PRESENTATION_STYLE_ASSIGNMENT((#3910));
#3930=CARTESIAN_POINT('',(65.2499999999224,14.7120767787964,
9.99999999991271));
#3940=DIRECTION('',(-8.07793566946316E-28,4.8962262936908E-22,1.));
#3950=DIRECTION('',(1.,-4.19733205165281E-12,-4.03896783473158E-28));
#3960=AXIS2_PLACEMENT_3D('',#3930,#3940,#3950);
#3970=CYLINDRICAL_SURFACE('',#3960,17.);
#3980=CARTESIAN_POINT('',(50.9499999993037,23.9050088454607,
9.99999999991271));
#3990=DIRECTION('',(-8.07793566946316E-28,4.8962262936908E-22,1.));
#4000=VECTOR('',#3990,1.);
#4010=LINE('',#3980,#4000);
#4020=CARTESIAN_POINT('',(50.9499999993083,23.9050088454643,12.2));
#4030=VERTEX_POINT('',#4020);
#4040=EDGE_CURVE('',#2300,#4030,#4010,.T.);
#4050=ORIENTED_EDGE('',*,*,#4040,.T.);
#4060=ORIENTED_EDGE('',*,*,#2710,.F.);
#4070=ORIENTED_EDGE('',*,*,#140,.F.);
#4080=CARTESIAN_POINT('',(65.2499999999224,14.7120767787964,
12.1999999998256));
#4090=DIRECTION('',(-8.07793566946316E-28,4.89622629369079E-22,1.));
#4100=DIRECTION('',(1.,-4.19733205165281E-12,8.07793566946316E-28));
#4110=AXIS2_PLACEMENT_3D('',#4080,#4090,#4100);
#4120=CIRCLE('',#4110,17.);
#4130=EDGE_CURVE('',#4030,#130,#4120,.T.);
#4140=ORIENTED_EDGE('',*,*,#4130,.T.);
#4150=EDGE_LOOP('',(#4140,#4070,#4060,#4050));
#4160=FACE_OUTER_BOUND('',#4150,.T.);
#4170=ADVANCED_FACE('',(#4160),#3970,.F.);
#4180=COLOUR_RGB('',0.560784339904785,0.588235318660736,
0.600000023841858);
#4190=FILL_AREA_STYLE_COLOUR('',#4180);
#4200=FILL_AREA_STYLE('',(#4190));
#4210=SURFACE_STYLE_FILL_AREA(#4200);
#4220=SURFACE_SIDE_STYLE('',(#4210));
#4230=SURFACE_STYLE_USAGE(.BOTH.,#4220);
#4240=PRESENTATION_STYLE_ASSIGNMENT((#4230));
#4250=CARTESIAN_POINT('',(50.950000000709,35.6855234164103,
12.1999999998556));
#4260=DIRECTION('',(-1.,1.18901425788236E-10,2.09596185642923E-12));
#4270=DIRECTION('',(1.18901425788236E-10,1.,-2.44811802202566E-22));
#4280=AXIS2_PLACEMENT_3D('',#4250,#4260,#4270);
#4290=PLANE('',#4280);
#4300=ORIENTED_EDGE('',*,*,#1640,.T.);
#4310=ORIENTED_EDGE('',*,*,#2310,.T.);
#4320=ORIENTED_EDGE('',*,*,#4040,.F.);
#4330=CARTESIAN_POINT('',(50.9499999974397,8.18987736631922,
12.1999999998556));
#4340=DIRECTION('',(-1.18901425788236E-10,-1.,2.44811802202566E-22));
#4350=VECTOR('',#4340,1.);
#4360=LINE('',#4330,#4350);
#4370=EDGE_CURVE('',#1630,#4030,#4360,.T.);
#4380=ORIENTED_EDGE('',*,*,#4370,.T.);
#4390=EDGE_LOOP('',(#4380,#4320,#4310,#4300));
#4400=FACE_OUTER_BOUND('',#4390,.T.);
#4410=ADVANCED_FACE('',(#4400),#4290,.F.);
#4420=COLOUR_RGB('',0.560784339904785,0.588235318660736,
0.600000023841858);
#4430=FILL_AREA_STYLE_COLOUR('',#4420);
#4440=FILL_AREA_STYLE('',(#4430));
#4450=SURFACE_STYLE_FILL_AREA(#4440);
#4460=SURFACE_SIDE_STYLE('',(#4450));
#4470=SURFACE_STYLE_USAGE(.BOTH.,#4460);
#4480=PRESENTATION_STYLE_ASSIGNMENT((#4470));
#4490=CARTESIAN_POINT('',(1.10909822934753,16.5473047820541,12.2));
#4500=DIRECTION('',(-0.,0.,1.));
#4510=DIRECTION('',(1.,-2.09977624885101E-12,0.));
#4520=AXIS2_PLACEMENT_3D('',#4490,#4500,#4510);
#4530=PLANE('',#4520);
#4540=ORIENTED_EDGE('',*,*,#1700,.F.);
#4550=ORIENTED_EDGE('',*,*,#4370,.F.);
#4560=ORIENTED_EDGE('',*,*,#4130,.F.);
#4570=ORIENTED_EDGE('',*,*,#360,.F.);
#4580=ORIENTED_EDGE('',*,*,#730,.F.);
#4590=ORIENTED_EDGE('',*,*,#3230,.T.);
#4600=ORIENTED_EDGE('',*,*,#2940,.T.);
#4610=ORIENTED_EDGE('',*,*,#1000,.F.);
#4620=ORIENTED_EDGE('',*,*,#3780,.T.);
#4630=ORIENTED_EDGE('',*,*,#3490,.T.);
#4640=ORIENTED_EDGE('',*,*,#2080,.T.);
#4650=EDGE_LOOP('',(#4640,#4630,#4620,#4610,#4600,#4590,#4580,#4570,
#4560,#4550,#4540));
#4660=FACE_OUTER_BOUND('',#4650,.T.);
#4670=ADVANCED_FACE('',(#4660),#4530,.T.);
#4680=COLOUR_RGB('',0.560784339904785,0.588235318660736,
0.600000023841858);
#4690=FILL_AREA_STYLE_COLOUR('',#4680);
#4700=FILL_AREA_STYLE('',(#4690));
#4710=SURFACE_STYLE_FILL_AREA(#4700);
#4720=SURFACE_SIDE_STYLE('',(#4710));
#4730=SURFACE_STYLE_USAGE(.BOTH.,#4720);
#4740=PRESENTATION_STYLE_ASSIGNMENT((#4730));
#4750=CLOSED_SHELL('',(#4670,#400,#780,#1270,#1740,#2120,#2750,#3060,
#3300,#3610,#3850,#4170,#4410));
#4760=MANIFOLD_SOLID_BREP('',#4750);
#4770=CARTESIAN_POINT('',(0.,0.,0.));
#4780=DIRECTION('',(0.,0.,1.));
#4790=DIRECTION('',(1.,0.,0.));
#4800=AXIS2_PLACEMENT_3D('',#4770,#4780,#4790);
#4810=APPLICATION_CONTEXT(' ');
#4820=APPLICATION_PROTOCOL_DEFINITION(' ','automotive_design',1998,#4810
);
#4830=PRODUCT_CONTEXT('',#4810,'mechanical');
#4840=PRODUCT_DEFINITION_CONTEXT('part definition',#4810,'design');
#4850=PRODUCT('D-PT-10-TWIN-SELECT','D-PT-10-TWIN-SELECT','',(#4830));
#4860=PRODUCT_RELATED_PRODUCT_CATEGORY('part',' ',(#4850));
#4870=PRODUCT_DEFINITION_FORMATION_WITH_SPECIFIED_SOURCE('','',#4850,
.BOUGHT.);
#4880=PRODUCT_DEFINITION('',' ',#4870,#4840);
#4890=PRODUCT_DEFINITION_SHAPE('','',#4880);
#4900=DIMENSIONAL_EXPONENTS(1.,0.,0.,0.,0.,0.,0.);
#4910=DIMENSIONAL_EXPONENTS(0.,0.,0.,0.,0.,0.,0.);
#4920=DIMENSIONAL_EXPONENTS(0.,0.,0.,0.,0.,0.,0.);
#4930=(LENGTH_UNIT() NAMED_UNIT(*) SI_UNIT(.MILLI.,.METRE.));
#4940=(NAMED_UNIT(*) PLANE_ANGLE_UNIT() SI_UNIT($,.RADIAN.));
#4950=(NAMED_UNIT(*) SI_UNIT($,.STERADIAN.) SOLID_ANGLE_UNIT());
#4960=(GEOMETRIC_REPRESENTATION_CONTEXT(3) 
GLOBAL_UNCERTAINTY_ASSIGNED_CONTEXT((#4970)) 
GLOBAL_UNIT_ASSIGNED_CONTEXT((#4930,#4940,#4950)) REPRESENTATION_CONTEXT
('',''));
#4970=UNCERTAINTY_MEASURE_WITH_UNIT(LENGTH_MEASURE(1.E-6),#4930,
'distance_accuracy_value','maximum gap value');
#4980=ADVANCED_BREP_SHAPE_REPRESENTATION('',(#4800,#4760),#4960);
#4990=SHAPE_DEFINITION_REPRESENTATION(#4890,#4980);
#5000=COLOUR_RGB('',0.560784339904785,0.588235318660736,
0.600000023841858);
#5010=FILL_AREA_STYLE_COLOUR('',#5000);
#5020=FILL_AREA_STYLE('',(#5010));
#5030=SURFACE_STYLE_FILL_AREA(#5020);
#5040=SURFACE_SIDE_STYLE('',(#5030));
#5050=SURFACE_STYLE_USAGE(.BOTH.,#5040);
#5060=PRESENTATION_STYLE_ASSIGNMENT((#5050));
#5070=STYLED_ITEM('',(#5060),#4760);
#5080=OVER_RIDING_STYLED_ITEM('',(#470),#400,#5070);
#5090=OVER_RIDING_STYLED_ITEM('',(#850),#780,#5070);
#5100=OVER_RIDING_STYLED_ITEM('',(#1340),#1270,#5070);
#5110=OVER_RIDING_STYLED_ITEM('',(#1810),#1740,#5070);
#5120=OVER_RIDING_STYLED_ITEM('',(#2190),#2120,#5070);
#5130=OVER_RIDING_STYLED_ITEM('',(#2820),#2750,#5070);
#5140=OVER_RIDING_STYLED_ITEM('',(#3130),#3060,#5070);
#5150=OVER_RIDING_STYLED_ITEM('',(#3370),#3300,#5070);
#5160=OVER_RIDING_STYLED_ITEM('',(#3680),#3610,#5070);
#5170=OVER_RIDING_STYLED_ITEM('',(#3920),#3850,#5070);
#5180=OVER_RIDING_STYLED_ITEM('',(#4240),#4170,#5070);
#5190=OVER_RIDING_STYLED_ITEM('',(#4480),#4410,#5070);
#5200=OVER_RIDING_STYLED_ITEM('',(#4740),#4670,#5070);
#5210=DRAUGHTING_MODEL('',(#5070,#5080,#5090,#5100,#5110,#5120,#5130,
#5140,#5150,#5160,#5170,#5180,#5190,#5200),#4960);
#5220=CARTESIAN_POINT('',(-10.000000005128,37.949999999605,
-0.212076784424923));
#5230=DIRECTION('',(1.,1.18901425788236E-10,-5.55252887759281E-17));
#5240=DIRECTION('',(-1.18901425788236E-10,1.,-1.6654734702104E-16));
#5250=AXIS2_PLACEMENT_3D('',#5220,#5230,#5240);
#5260=ITEM_DEFINED_TRANSFORMATION('D-PT-10-TWIN-SELECT','',#4800,#5250);
#5270=APPLICATION_CONTEXT(' ');
#5280=APPLICATION_PROTOCOL_DEFINITION(' ','automotive_design',1998,#5270
);
#5290=PRODUCT_CONTEXT('',#5270,'mechanical');
#5300=PRODUCT_DEFINITION_CONTEXT('part definition',#5270,'design');
#5310=PRODUCT('D-PT-10-TWIN-SELECT','D-PT-10-TWIN-SELECT','',(#5290));
#5320=PRODUCT_RELATED_PRODUCT_CATEGORY('part',' ',(#5310));
#5330=PRODUCT_DEFINITION_FORMATION_WITH_SPECIFIED_SOURCE('','',#5310,
.BOUGHT.);
#5340=PRODUCT_DEFINITION('',' ',#5330,#5300);
#5350=PRODUCT_DEFINITION_SHAPE('','',#5340);
#5360=DIMENSIONAL_EXPONENTS(1.,0.,0.,0.,0.,0.,0.);
#5370=DIMENSIONAL_EXPONENTS(0.,0.,0.,0.,0.,0.,0.);
#5380=DIMENSIONAL_EXPONENTS(0.,0.,0.,0.,0.,0.,0.);
#5390=(LENGTH_UNIT() NAMED_UNIT(*) SI_UNIT(.MILLI.,.METRE.));
#5400=(NAMED_UNIT(*) PLANE_ANGLE_UNIT() SI_UNIT($,.RADIAN.));
#5410=(NAMED_UNIT(*) SI_UNIT($,.STERADIAN.) SOLID_ANGLE_UNIT());
#5420=(GEOMETRIC_REPRESENTATION_CONTEXT(3) 
GLOBAL_UNCERTAINTY_ASSIGNED_CONTEXT((#5430)) 
GLOBAL_UNIT_ASSIGNED_CONTEXT((#5390,#5400,#5410)) REPRESENTATION_CONTEXT
('',''));
#5430=UNCERTAINTY_MEASURE_WITH_UNIT(LENGTH_MEASURE(1.E-6),#5390,
'distance_accuracy_value','maximum gap value');
#5440=SHAPE_REPRESENTATION('',(#4800,#5250),#5420);
#5450=SHAPE_DEFINITION_REPRESENTATION(#5350,#5440);
#5460=(REPRESENTATION_RELATIONSHIP('','',#4980,#5440) 
REPRESENTATION_RELATIONSHIP_WITH_TRANSFORMATION(#5260) 
SHAPE_REPRESENTATION_RELATIONSHIP());
#5470=NEXT_ASSEMBLY_USAGE_OCCURRENCE('1','','D-PT-10-TWIN-SELECT',#5340,
#4880,'');
#5480=PRODUCT_DEFINITION_SHAPE('','',#5470);
#5490=CONTEXT_DEPENDENT_SHAPE_REPRESENTATION(#5460,#5480);
ENDSEC;
END-ISO-10303-21;
