ISO-10303-21;
HEADER;
FILE_DESCRIPTION(('Creo Elements/Direct Modeling STEP Export'),'2;1');
FILE_NAME(
'D:/temp/JobSpoolerServerData/JobServer Files/39f490b2-e327-4b36-b5cb-10
416ef0eca3/work/output/model.stp','2017-11-17T 5:56:09',(''),(''),
'Creo Elements/Direct Modeling STEP processor for AP214 (Solid Model)',
'Creo Elements/Direct Modeling 18.1I  14-Aug-2016 (C) Parametric Technol
ogy GmbH','');
FILE_SCHEMA(('AUTOMOTIVE_DESIGN { 1 0 10303 214 1 1 1 1 }'));
ENDSEC;
DATA;
#10=CARTESIAN_POINT('',(-57.7000000034791,12.7371090224767,
0.999999999999993));
#20=DIRECTION('',(-0.984807753012208,0.17364817766693,0.));
#30=DIRECTION('',(0.17364817766693,0.984807753012208,0.));
#40=AXIS2_PLACEMENT_3D('',#10,#20,#30);
#50=PLANE('',#40);
#60=CARTESIAN_POINT('',(-56.5471824798404,19.2750620856257,
0.999999999999993));
#70=DIRECTION('',(0.17364817766693,0.984807753012208,0.));
#80=VECTOR('',#70,1.);
#90=LINE('',#60,#80);
#100=CARTESIAN_POINT('',(-57.7000000034791,12.7371090224767,
0.999999999999993));
#110=VERTEX_POINT('',#100);
#120=CARTESIAN_POINT('',(-56.4193563662302,19.9999999998155,
0.999999999999993));
#130=VERTEX_POINT('',#120);
#140=EDGE_CURVE('',#110,#130,#90,.T.);
#150=ORIENTED_EDGE('',*,*,#140,.F.);
#160=CARTESIAN_POINT('',(-56.4193563662302,19.9999999998155,
0.999999999999993));
#170=DIRECTION('',(0.,0.,1.));
#180=VECTOR('',#170,1.);
#190=LINE('',#160,#180);
#200=CARTESIAN_POINT('',(-56.4193563662302,19.9999999998155,3.2));
#210=VERTEX_POINT('',#200);
#220=EDGE_CURVE('',#130,#210,#190,.T.);
#230=ORIENTED_EDGE('',*,*,#220,.F.);
#240=CARTESIAN_POINT('',(-56.5471824798404,19.2750620856257,
3.19999999999999));
#250=DIRECTION('',(0.17364817766693,0.984807753012208,0.));
#260=VECTOR('',#250,1.);
#270=LINE('',#240,#260);
#280=CARTESIAN_POINT('',(-57.7000000034791,12.7371090224767,3.2));
#290=VERTEX_POINT('',#280);
#300=EDGE_CURVE('',#290,#210,#270,.T.);
#310=ORIENTED_EDGE('',*,*,#300,.T.);
#320=CARTESIAN_POINT('',(-57.7000000034791,12.7371090224767,
0.999999999999993));
#330=DIRECTION('',(0.,0.,1.));
#340=VECTOR('',#330,1.);
#350=LINE('',#320,#340);
#360=EDGE_CURVE('',#110,#290,#350,.T.);
#370=ORIENTED_EDGE('',*,*,#360,.T.);
#380=EDGE_LOOP('',(#370,#310,#230,#150));
#390=FACE_OUTER_BOUND('',#380,.T.);
#400=ADVANCED_FACE('',(#390),#50,.T.);
#410=COLOUR_RGB('',0.560784339904785,0.588235318660736,0.600000023841858
);
#420=FILL_AREA_STYLE_COLOUR('',#410);
#430=FILL_AREA_STYLE('',(#420));
#440=SURFACE_STYLE_FILL_AREA(#430);
#450=SURFACE_SIDE_STYLE('',(#440));
#460=SURFACE_STYLE_USAGE(.BOTH.,#450);
#470=PRESENTATION_STYLE_ASSIGNMENT((#460));
#480=CARTESIAN_POINT('',(-13.9999999982608,-8.55000000000033,
0.999999999999993));
#490=DIRECTION('',(0.,0.,-1.));
#500=DIRECTION('',(-1.,0.,0.));
#510=AXIS2_PLACEMENT_3D('',#480,#490,#500);
#520=PLANE('',#510);
#530=CARTESIAN_POINT('',(-18.024193656789,-9.05000000000033,
0.999999999999993));
#540=DIRECTION('',(-1.,0.,0.));
#550=VECTOR('',#540,1.);
#560=LINE('',#530,#550);
#570=CARTESIAN_POINT('',(12.908770501965,-9.05000000000033,
0.999999999999993));
#580=VERTEX_POINT('',#570);
#590=CARTESIAN_POINT('',(-57.7000000034791,-9.05000000000033,
0.999999999999993));
#600=VERTEX_POINT('',#590);
#610=EDGE_CURVE('',#580,#600,#560,.T.);
#620=ORIENTED_EDGE('',*,*,#610,.T.);
#630=CARTESIAN_POINT('',(9.49224354100104,-10.7530550581717,
0.999999999999993));
#640=DIRECTION('',(0.894972271448765,0.446121769630039,0.));
#650=VECTOR('',#640,1.);
#660=LINE('',#630,#650);
#670=CARTESIAN_POINT('',(19.2000000034816,-5.91397609411782,
0.999999999999993));
#680=VERTEX_POINT('',#670);
#690=EDGE_CURVE('',#580,#680,#660,.T.);
#700=ORIENTED_EDGE('',*,*,#690,.F.);
#710=CARTESIAN_POINT('',(19.2000000034803,10.4125703805618,
0.999999999999993));
#720=DIRECTION('',(0.,1.,0.));
#730=VECTOR('',#720,1.);
#740=LINE('',#710,#730);
#750=CARTESIAN_POINT('',(19.2000000034816,-4.05000000003221,
0.999999999999993));
#760=VERTEX_POINT('',#750);
#770=EDGE_CURVE('',#680,#760,#740,.T.);
#780=ORIENTED_EDGE('',*,*,#770,.F.);
#790=CARTESIAN_POINT('',(32.9477270883492,1.94999999996775,
0.999999999999993));
#800=DIRECTION('',(0.,0.,1.));
#810=DIRECTION('',(1.,0.,0.));
#820=AXIS2_PLACEMENT_3D('',#790,#800,#810);
#830=CIRCLE('',#820,15.);
#840=CARTESIAN_POINT('',(19.2000000034803,7.94999999996481,
0.999999999999993));
#850=VERTEX_POINT('',#840);
#860=EDGE_CURVE('',#850,#760,#830,.T.);
#870=ORIENTED_EDGE('',*,*,#860,.T.);
#880=CARTESIAN_POINT('',(19.2000000034803,10.4125703805618,
0.999999999999993));
#890=DIRECTION('',(0.,1.,0.));
#900=VECTOR('',#890,1.);
#910=LINE('',#880,#900);
#920=CARTESIAN_POINT('',(19.2000000034803,12.7371090223834,
0.999999999999993));
#930=VERTEX_POINT('',#920);
#940=EDGE_CURVE('',#850,#930,#910,.T.);
#950=ORIENTED_EDGE('',*,*,#940,.F.);
#960=CARTESIAN_POINT('',(18.0471824798363,19.2750620855625,
0.999999999999993));
#970=DIRECTION('',(0.17364817766693,-0.984807753012208,0.));
#980=VECTOR('',#970,1.);
#990=LINE('',#960,#980);
#1000=CARTESIAN_POINT('',(17.9193563662149,19.9999999998155,
0.999999999999993));
#1010=VERTEX_POINT('',#1000);
#1020=EDGE_CURVE('',#1010,#930,#990,.T.);
#1030=ORIENTED_EDGE('',*,*,#1020,.T.);
#1040=CARTESIAN_POINT('',(-18.024193656789,19.9999999998155,
0.999999999999993));
#1050=DIRECTION('',(-1.,0.,0.));
#1060=VECTOR('',#1050,1.);
#1070=LINE('',#1040,#1060);
#1080=EDGE_CURVE('',#1010,#130,#1070,.T.);
#1090=ORIENTED_EDGE('',*,*,#1080,.F.);
#1100=ORIENTED_EDGE('',*,*,#140,.T.);
#1110=CARTESIAN_POINT('',(-57.7000000034791,10.3592804147912,
0.999999999999993));
#1120=DIRECTION('',(0.,1.,0.));
#1130=VECTOR('',#1120,1.);
#1140=LINE('',#1110,#1130);
#1150=CARTESIAN_POINT('',(-57.7000000034791,7.95000000006062,
0.999999999999993));
#1160=VERTEX_POINT('',#1150);
#1170=EDGE_CURVE('',#1160,#110,#1140,.T.);
#1180=ORIENTED_EDGE('',*,*,#1170,.T.);
#1190=CARTESIAN_POINT('',(-72.0090880247333,3.45000000006057,
0.999999999999993));
#1200=DIRECTION('',(0.,0.,1.));
#1210=DIRECTION('',(1.,0.,0.));
#1220=AXIS2_PLACEMENT_3D('',#1190,#1200,#1210);
#1230=CIRCLE('',#1220,15.);
#1240=CARTESIAN_POINT('',(-57.7000000034791,-1.04999999993948,
0.999999999999993));
#1250=VERTEX_POINT('',#1240);
#1260=EDGE_CURVE('',#1250,#1160,#1230,.T.);
#1270=ORIENTED_EDGE('',*,*,#1260,.T.);
#1280=CARTESIAN_POINT('',(-57.7000000034791,-8.75000000000003,
0.999999999999993));
#1290=DIRECTION('',(0.,1.,0.));
#1300=VECTOR('',#1290,1.);
#1310=LINE('',#1280,#1300);
#1320=EDGE_CURVE('',#600,#1250,#1310,.T.);
#1330=ORIENTED_EDGE('',*,*,#1320,.T.);
#1340=EDGE_LOOP('',(#1330,#1270,#1180,#1100,#1090,#1030,#950,#870,#780,
#700,#620));
#1350=FACE_OUTER_BOUND('',#1340,.T.);
#1360=ADVANCED_FACE('',(#1350),#520,.T.);
#1370=COLOUR_RGB('',0.560784339904785,0.588235318660736,
0.600000023841858);
#1380=FILL_AREA_STYLE_COLOUR('',#1370);
#1390=FILL_AREA_STYLE('',(#1380));
#1400=SURFACE_STYLE_FILL_AREA(#1390);
#1410=SURFACE_SIDE_STYLE('',(#1400));
#1420=SURFACE_STYLE_USAGE(.BOTH.,#1410);
#1430=PRESENTATION_STYLE_ASSIGNMENT((#1420));
#1440=CARTESIAN_POINT('',(12.908770501965,-9.05000000000033,
0.999999999999993));
#1450=DIRECTION('',(-0.,-1.,-0.));
#1460=DIRECTION('',(-1.,0.,0.));
#1470=AXIS2_PLACEMENT_3D('',#1440,#1450,#1460);
#1480=PLANE('',#1470);
#1490=CARTESIAN_POINT('',(-57.7000000034791,-9.05000000000033,
0.999999999999993));
#1500=DIRECTION('',(0.,0.,-1.));
#1510=VECTOR('',#1500,1.);
#1520=LINE('',#1490,#1510);
#1530=CARTESIAN_POINT('',(-57.7000000034791,-9.05000000000033,3.2));
#1540=VERTEX_POINT('',#1530);
#1550=EDGE_CURVE('',#1540,#600,#1520,.T.);
#1560=ORIENTED_EDGE('',*,*,#1550,.T.);
#1570=CARTESIAN_POINT('',(-18.024193656789,-9.05000000000033,3.2));
#1580=DIRECTION('',(-1.,0.,0.));
#1590=VECTOR('',#1580,1.);
#1600=LINE('',#1570,#1590);
#1610=CARTESIAN_POINT('',(12.908770501965,-9.05000000000033,3.2));
#1620=VERTEX_POINT('',#1610);
#1630=EDGE_CURVE('',#1620,#1540,#1600,.T.);
#1640=ORIENTED_EDGE('',*,*,#1630,.T.);
#1650=CARTESIAN_POINT('',(12.908770501965,-9.05000000000033,
0.999999999999993));
#1660=DIRECTION('',(0.,0.,1.));
#1670=VECTOR('',#1660,1.);
#1680=LINE('',#1650,#1670);
#1690=EDGE_CURVE('',#580,#1620,#1680,.T.);
#1700=ORIENTED_EDGE('',*,*,#1690,.T.);
#1710=ORIENTED_EDGE('',*,*,#610,.F.);
#1720=EDGE_LOOP('',(#1710,#1700,#1640,#1560));
#1730=FACE_OUTER_BOUND('',#1720,.T.);
#1740=ADVANCED_FACE('',(#1730),#1480,.T.);
#1750=COLOUR_RGB('',0.560784339904785,0.588235318660736,
0.600000023841858);
#1760=FILL_AREA_STYLE_COLOUR('',#1750);
#1770=FILL_AREA_STYLE('',(#1760));
#1780=SURFACE_STYLE_FILL_AREA(#1770);
#1790=SURFACE_SIDE_STYLE('',(#1780));
#1800=SURFACE_STYLE_USAGE(.BOTH.,#1790);
#1810=PRESENTATION_STYLE_ASSIGNMENT((#1800));
#1820=CARTESIAN_POINT('',(19.2000000034803,-5.91397609411845,
0.999999999999993));
#1830=DIRECTION('',(0.446121769630039,-0.894972271448765,0.));
#1840=DIRECTION('',(-0.894972271448765,-0.446121769630039,0.));
#1850=AXIS2_PLACEMENT_3D('',#1820,#1830,#1840);
#1860=PLANE('',#1850);
#1870=ORIENTED_EDGE('',*,*,#690,.T.);
#1880=ORIENTED_EDGE('',*,*,#1690,.F.);
#1890=CARTESIAN_POINT('',(9.49224354100104,-10.7530550581717,
3.19999999999999));
#1900=DIRECTION('',(0.894972271448765,0.446121769630039,0.));
#1910=VECTOR('',#1900,1.);
#1920=LINE('',#1890,#1910);
#1930=CARTESIAN_POINT('',(19.2000000034816,-5.91397609411782,3.2));
#1940=VERTEX_POINT('',#1930);
#1950=EDGE_CURVE('',#1620,#1940,#1920,.T.);
#1960=ORIENTED_EDGE('',*,*,#1950,.F.);
#1970=CARTESIAN_POINT('',(19.2000000034816,-5.91397609411782,
0.999999999999993));
#1980=DIRECTION('',(0.,0.,1.));
#1990=VECTOR('',#1980,1.);
#2000=LINE('',#1970,#1990);
#2010=EDGE_CURVE('',#680,#1940,#2000,.T.);
#2020=ORIENTED_EDGE('',*,*,#2010,.T.);
#2030=EDGE_LOOP('',(#2020,#1960,#1880,#1870));
#2040=FACE_OUTER_BOUND('',#2030,.T.);
#2050=ADVANCED_FACE('',(#2040),#1860,.T.);
#2060=COLOUR_RGB('',0.560784339904785,0.588235318660736,
0.600000023841858);
#2070=FILL_AREA_STYLE_COLOUR('',#2060);
#2080=FILL_AREA_STYLE('',(#2070));
#2090=SURFACE_STYLE_FILL_AREA(#2080);
#2100=SURFACE_SIDE_STYLE('',(#2090));
#2110=SURFACE_STYLE_USAGE(.BOTH.,#2100);
#2120=PRESENTATION_STYLE_ASSIGNMENT((#2110));
#2130=CARTESIAN_POINT('',(19.2000000034816,-4.45383413752596,
0.999999999999993));
#2140=DIRECTION('',(1.,0.,0.));
#2150=DIRECTION('',(0.,-1.,0.));
#2160=AXIS2_PLACEMENT_3D('',#2130,#2140,#2150);
#2170=PLANE('',#2160);
#2180=ORIENTED_EDGE('',*,*,#770,.T.);
#2190=ORIENTED_EDGE('',*,*,#2010,.F.);
#2200=CARTESIAN_POINT('',(19.2000000034803,10.4125703805618,
3.19999999999999));
#2210=DIRECTION('',(0.,1.,0.));
#2220=VECTOR('',#2210,1.);
#2230=LINE('',#2200,#2220);
#2240=CARTESIAN_POINT('',(19.2000000034816,-4.05000000003221,3.2));
#2250=VERTEX_POINT('',#2240);
#2260=EDGE_CURVE('',#1940,#2250,#2230,.T.);
#2270=ORIENTED_EDGE('',*,*,#2260,.F.);
#2280=CARTESIAN_POINT('',(19.2000000034816,-4.05000000003221,
0.999999999999993));
#2290=DIRECTION('',(0.,0.,1.));
#2300=VECTOR('',#2290,1.);
#2310=LINE('',#2280,#2300);
#2320=EDGE_CURVE('',#760,#2250,#2310,.T.);
#2330=ORIENTED_EDGE('',*,*,#2320,.T.);
#2340=EDGE_LOOP('',(#2330,#2270,#2190,#2180));
#2350=FACE_OUTER_BOUND('',#2340,.T.);
#2360=ADVANCED_FACE('',(#2350),#2170,.T.);
#2370=COLOUR_RGB('',0.560784339904785,0.588235318660736,
0.600000023841858);
#2380=FILL_AREA_STYLE_COLOUR('',#2370);
#2390=FILL_AREA_STYLE('',(#2380));
#2400=SURFACE_STYLE_FILL_AREA(#2390);
#2410=SURFACE_SIDE_STYLE('',(#2400));
#2420=SURFACE_STYLE_USAGE(.BOTH.,#2410);
#2430=PRESENTATION_STYLE_ASSIGNMENT((#2420));
#2440=CARTESIAN_POINT('',(-57.7000000034791,-5.04999999993845,
0.999999999999993));
#2450=DIRECTION('',(-1.,0.,0.));
#2460=DIRECTION('',(0.,1.,0.));
#2470=AXIS2_PLACEMENT_3D('',#2440,#2450,#2460);
#2480=PLANE('',#2470);
#2490=ORIENTED_EDGE('',*,*,#1320,.F.);
#2500=CARTESIAN_POINT('',(-57.7000000034791,-1.04999999993948,
0.999999999999993));
#2510=DIRECTION('',(0.,0.,1.));
#2520=VECTOR('',#2510,1.);
#2530=LINE('',#2500,#2520);
#2540=CARTESIAN_POINT('',(-57.7000000034791,-1.04999999993948,3.2));
#2550=VERTEX_POINT('',#2540);
#2560=EDGE_CURVE('',#1250,#2550,#2530,.T.);
#2570=ORIENTED_EDGE('',*,*,#2560,.F.);
#2580=CARTESIAN_POINT('',(-57.7000000034791,-8.75000000000003,3.2));
#2590=DIRECTION('',(0.,1.,0.));
#2600=VECTOR('',#2590,1.);
#2610=LINE('',#2580,#2600);
#2620=EDGE_CURVE('',#1540,#2550,#2610,.T.);
#2630=ORIENTED_EDGE('',*,*,#2620,.T.);
#2640=ORIENTED_EDGE('',*,*,#1550,.F.);
#2650=EDGE_LOOP('',(#2640,#2630,#2570,#2490));
#2660=FACE_OUTER_BOUND('',#2650,.T.);
#2670=ADVANCED_FACE('',(#2660),#2480,.T.);
#2680=COLOUR_RGB('',0.560784339904785,0.588235318660736,
0.600000023841858);
#2690=FILL_AREA_STYLE_COLOUR('',#2680);
#2700=FILL_AREA_STYLE('',(#2690));
#2710=SURFACE_STYLE_FILL_AREA(#2700);
#2720=SURFACE_SIDE_STYLE('',(#2710));
#2730=SURFACE_STYLE_USAGE(.BOTH.,#2720);
#2740=PRESENTATION_STYLE_ASSIGNMENT((#2730));
#2750=CARTESIAN_POINT('',(32.9477270883492,1.94999999996775,
0.999999999999993));
#2760=DIRECTION('',(0.,0.,1.));
#2770=DIRECTION('',(1.,0.,0.));
#2780=AXIS2_PLACEMENT_3D('',#2750,#2760,#2770);
#2790=CYLINDRICAL_SURFACE('',#2780,15.);
#2800=ORIENTED_EDGE('',*,*,#860,.F.);
#2810=ORIENTED_EDGE('',*,*,#2320,.F.);
#2820=CARTESIAN_POINT('',(32.9477270883492,1.94999999996775,
3.19999999999999));
#2830=DIRECTION('',(0.,0.,1.));
#2840=DIRECTION('',(1.,0.,0.));
#2850=AXIS2_PLACEMENT_3D('',#2820,#2830,#2840);
#2860=CIRCLE('',#2850,15.);
#2870=CARTESIAN_POINT('',(19.2000000034803,7.94999999996481,3.2));
#2880=VERTEX_POINT('',#2870);
#2890=EDGE_CURVE('',#2880,#2250,#2860,.T.);
#2900=ORIENTED_EDGE('',*,*,#2890,.T.);
#2910=CARTESIAN_POINT('',(19.2000000034803,7.94999999996481,
0.999999999999993));
#2920=DIRECTION('',(0.,0.,1.));
#2930=VECTOR('',#2920,1.);
#2940=LINE('',#2910,#2930);
#2950=EDGE_CURVE('',#850,#2880,#2940,.T.);
#2960=ORIENTED_EDGE('',*,*,#2950,.T.);
#2970=EDGE_LOOP('',(#2960,#2900,#2810,#2800));
#2980=FACE_OUTER_BOUND('',#2970,.T.);
#2990=ADVANCED_FACE('',(#2980),#2790,.F.);
#3000=COLOUR_RGB('',0.560784339904785,0.588235318660736,
0.600000023841858);
#3010=FILL_AREA_STYLE_COLOUR('',#3000);
#3020=FILL_AREA_STYLE('',(#3010));
#3030=SURFACE_STYLE_FILL_AREA(#3020);
#3040=SURFACE_SIDE_STYLE('',(#3030));
#3050=SURFACE_STYLE_USAGE(.BOTH.,#3040);
#3060=PRESENTATION_STYLE_ASSIGNMENT((#3050));
#3070=CARTESIAN_POINT('',(19.2000000034803,12.7371090223834,
0.999999999999993));
#3080=DIRECTION('',(1.,0.,0.));
#3090=DIRECTION('',(0.,-1.,0.));
#3100=AXIS2_PLACEMENT_3D('',#3070,#3080,#3090);
#3110=PLANE('',#3100);
#3120=ORIENTED_EDGE('',*,*,#940,.T.);
#3130=ORIENTED_EDGE('',*,*,#2950,.F.);
#3140=CARTESIAN_POINT('',(19.2000000034803,10.4125703805618,
3.19999999999999));
#3150=DIRECTION('',(0.,1.,0.));
#3160=VECTOR('',#3150,1.);
#3170=LINE('',#3140,#3160);
#3180=CARTESIAN_POINT('',(19.2000000034803,12.7371090223834,3.2));
#3190=VERTEX_POINT('',#3180);
#3200=EDGE_CURVE('',#2880,#3190,#3170,.T.);
#3210=ORIENTED_EDGE('',*,*,#3200,.F.);
#3220=CARTESIAN_POINT('',(19.2000000034803,12.7371090223834,
0.999999999999993));
#3230=DIRECTION('',(0.,0.,1.));
#3240=VECTOR('',#3230,1.);
#3250=LINE('',#3220,#3240);
#3260=EDGE_CURVE('',#930,#3190,#3250,.T.);
#3270=ORIENTED_EDGE('',*,*,#3260,.T.);
#3280=EDGE_LOOP('',(#3270,#3210,#3130,#3120));
#3290=FACE_OUTER_BOUND('',#3280,.T.);
#3300=ADVANCED_FACE('',(#3290),#3110,.T.);
#3310=COLOUR_RGB('',0.560784339904785,0.588235318660736,
0.600000023841858);
#3320=FILL_AREA_STYLE_COLOUR('',#3310);
#3330=FILL_AREA_STYLE('',(#3320));
#3340=SURFACE_STYLE_FILL_AREA(#3330);
#3350=SURFACE_SIDE_STYLE('',(#3340));
#3360=SURFACE_STYLE_USAGE(.BOTH.,#3350);
#3370=PRESENTATION_STYLE_ASSIGNMENT((#3360));
#3380=CARTESIAN_POINT('',(17.9193563662149,19.9999999998155,
0.999999999999993));
#3390=DIRECTION('',(0.984807753012208,0.17364817766693,0.));
#3400=DIRECTION('',(0.17364817766693,-0.984807753012208,0.));
#3410=AXIS2_PLACEMENT_3D('',#3380,#3390,#3400);
#3420=PLANE('',#3410);
#3430=ORIENTED_EDGE('',*,*,#1020,.F.);
#3440=ORIENTED_EDGE('',*,*,#3260,.F.);
#3450=CARTESIAN_POINT('',(18.0471824798363,19.2750620855625,
3.19999999999999));
#3460=DIRECTION('',(0.17364817766693,-0.984807753012208,0.));
#3470=VECTOR('',#3460,1.);
#3480=LINE('',#3450,#3470);
#3490=CARTESIAN_POINT('',(17.9193563662149,19.9999999998155,3.2));
#3500=VERTEX_POINT('',#3490);
#3510=EDGE_CURVE('',#3500,#3190,#3480,.T.);
#3520=ORIENTED_EDGE('',*,*,#3510,.T.);
#3530=CARTESIAN_POINT('',(17.9193563662149,19.9999999998155,
0.999999999999993));
#3540=DIRECTION('',(0.,0.,1.));
#3550=VECTOR('',#3540,1.);
#3560=LINE('',#3530,#3550);
#3570=EDGE_CURVE('',#1010,#3500,#3560,.T.);
#3580=ORIENTED_EDGE('',*,*,#3570,.T.);
#3590=EDGE_LOOP('',(#3580,#3520,#3440,#3430));
#3600=FACE_OUTER_BOUND('',#3590,.T.);
#3610=ADVANCED_FACE('',(#3600),#3420,.T.);
#3620=COLOUR_RGB('',0.560784339904785,0.588235318660736,
0.600000023841858);
#3630=FILL_AREA_STYLE_COLOUR('',#3620);
#3640=FILL_AREA_STYLE('',(#3630));
#3650=SURFACE_STYLE_FILL_AREA(#3640);
#3660=SURFACE_SIDE_STYLE('',(#3650));
#3670=SURFACE_STYLE_USAGE(.BOTH.,#3660);
#3680=PRESENTATION_STYLE_ASSIGNMENT((#3670));
#3690=CARTESIAN_POINT('',(-57.7000000034791,7.95000000006062,
0.999999999999993));
#3700=DIRECTION('',(-1.,0.,0.));
#3710=DIRECTION('',(0.,1.,0.));
#3720=AXIS2_PLACEMENT_3D('',#3690,#3700,#3710);
#3730=PLANE('',#3720);
#3740=ORIENTED_EDGE('',*,*,#1170,.F.);
#3750=ORIENTED_EDGE('',*,*,#360,.F.);
#3760=CARTESIAN_POINT('',(-57.7000000034791,10.3592804147912,
3.19999999999999));
#3770=DIRECTION('',(0.,1.,0.));
#3780=VECTOR('',#3770,1.);
#3790=LINE('',#3760,#3780);
#3800=CARTESIAN_POINT('',(-57.7000000034791,7.95000000006062,3.2));
#3810=VERTEX_POINT('',#3800);
#3820=EDGE_CURVE('',#3810,#290,#3790,.T.);
#3830=ORIENTED_EDGE('',*,*,#3820,.T.);
#3840=CARTESIAN_POINT('',(-57.7000000034791,7.95000000006062,
0.999999999999993));
#3850=DIRECTION('',(0.,0.,1.));
#3860=VECTOR('',#3850,1.);
#3870=LINE('',#3840,#3860);
#3880=EDGE_CURVE('',#1160,#3810,#3870,.T.);
#3890=ORIENTED_EDGE('',*,*,#3880,.T.);
#3900=EDGE_LOOP('',(#3890,#3830,#3750,#3740));
#3910=FACE_OUTER_BOUND('',#3900,.T.);
#3920=ADVANCED_FACE('',(#3910),#3730,.T.);
#3930=COLOUR_RGB('',0.560784339904785,0.588235318660736,
0.600000023841858);
#3940=FILL_AREA_STYLE_COLOUR('',#3930);
#3950=FILL_AREA_STYLE('',(#3940));
#3960=SURFACE_STYLE_FILL_AREA(#3950);
#3970=SURFACE_SIDE_STYLE('',(#3960));
#3980=SURFACE_STYLE_USAGE(.BOTH.,#3970);
#3990=PRESENTATION_STYLE_ASSIGNMENT((#3980));
#4000=CARTESIAN_POINT('',(4.40841177484482,-7.93195999979094,3.2));
#4010=DIRECTION('',(0.,0.,-1.));
#4020=DIRECTION('',(-1.,0.,0.));
#4030=AXIS2_PLACEMENT_3D('',#4000,#4010,#4020);
#4040=PLANE('',#4030);
#4050=ORIENTED_EDGE('',*,*,#2620,.F.);
#4060=CARTESIAN_POINT('',(-72.0090880247333,3.45000000006057,
3.19999999999999));
#4070=DIRECTION('',(0.,0.,1.));
#4080=DIRECTION('',(1.,0.,0.));
#4090=AXIS2_PLACEMENT_3D('',#4060,#4070,#4080);
#4100=CIRCLE('',#4090,15.);
#4110=EDGE_CURVE('',#2550,#3810,#4100,.T.);
#4120=ORIENTED_EDGE('',*,*,#4110,.F.);
#4130=ORIENTED_EDGE('',*,*,#3820,.F.);
#4140=ORIENTED_EDGE('',*,*,#300,.F.);
#4150=CARTESIAN_POINT('',(-9.48601310604774,20.000000000145,3.2));
#4160=DIRECTION('',(-1.,0.,0.));
#4170=VECTOR('',#4160,1.);
#4180=LINE('',#4150,#4170);
#4190=EDGE_CURVE('',#3500,#210,#4180,.T.);
#4200=ORIENTED_EDGE('',*,*,#4190,.T.);
#4210=ORIENTED_EDGE('',*,*,#3510,.F.);
#4220=ORIENTED_EDGE('',*,*,#3200,.T.);
#4230=ORIENTED_EDGE('',*,*,#2890,.F.);
#4240=ORIENTED_EDGE('',*,*,#2260,.T.);
#4250=ORIENTED_EDGE('',*,*,#1950,.T.);
#4260=ORIENTED_EDGE('',*,*,#1630,.F.);
#4270=EDGE_LOOP('',(#4260,#4250,#4240,#4230,#4220,#4210,#4200,#4140,
#4130,#4120,#4050));
#4280=FACE_OUTER_BOUND('',#4270,.T.);
#4290=ADVANCED_FACE('',(#4280),#4040,.F.);
#4300=COLOUR_RGB('',0.560784339904785,0.588235318660736,
0.600000023841858);
#4310=FILL_AREA_STYLE_COLOUR('',#4300);
#4320=FILL_AREA_STYLE('',(#4310));
#4330=SURFACE_STYLE_FILL_AREA(#4320);
#4340=SURFACE_SIDE_STYLE('',(#4330));
#4350=SURFACE_STYLE_USAGE(.BOTH.,#4340);
#4360=PRESENTATION_STYLE_ASSIGNMENT((#4350));
#4370=CARTESIAN_POINT('',(-72.0090880247333,3.45000000006057,
0.999999999999993));
#4380=DIRECTION('',(0.,0.,1.));
#4390=DIRECTION('',(1.,0.,0.));
#4400=AXIS2_PLACEMENT_3D('',#4370,#4380,#4390);
#4410=CYLINDRICAL_SURFACE('',#4400,15.);
#4420=ORIENTED_EDGE('',*,*,#3880,.F.);
#4430=ORIENTED_EDGE('',*,*,#4110,.T.);
#4440=ORIENTED_EDGE('',*,*,#2560,.T.);
#4450=ORIENTED_EDGE('',*,*,#1260,.F.);
#4460=EDGE_LOOP('',(#4450,#4440,#4430,#4420));
#4470=FACE_OUTER_BOUND('',#4460,.T.);
#4480=ADVANCED_FACE('',(#4470),#4410,.F.);
#4490=COLOUR_RGB('',0.560784339904785,0.588235318660736,
0.600000023841858);
#4500=FILL_AREA_STYLE_COLOUR('',#4490);
#4510=FILL_AREA_STYLE('',(#4500));
#4520=SURFACE_STYLE_FILL_AREA(#4510);
#4530=SURFACE_SIDE_STYLE('',(#4520));
#4540=SURFACE_STYLE_USAGE(.BOTH.,#4530);
#4550=PRESENTATION_STYLE_ASSIGNMENT((#4540));
#4560=CARTESIAN_POINT('',(-45.9193563627401,19.9999999998155,
0.999999999999993));
#4570=DIRECTION('',(-0.,1.,0.));
#4580=DIRECTION('',(1.,0.,0.));
#4590=AXIS2_PLACEMENT_3D('',#4560,#4570,#4580);
#4600=PLANE('',#4590);
#4610=ORIENTED_EDGE('',*,*,#3570,.F.);
#4620=ORIENTED_EDGE('',*,*,#4190,.F.);
#4630=ORIENTED_EDGE('',*,*,#220,.T.);
#4640=ORIENTED_EDGE('',*,*,#1080,.T.);
#4650=EDGE_LOOP('',(#4640,#4630,#4620,#4610));
#4660=FACE_OUTER_BOUND('',#4650,.T.);
#4670=ADVANCED_FACE('',(#4660),#4600,.T.);
#4680=COLOUR_RGB('',0.560784339904785,0.588235318660736,
0.600000023841858);
#4690=FILL_AREA_STYLE_COLOUR('',#4680);
#4700=FILL_AREA_STYLE('',(#4690));
#4710=SURFACE_STYLE_FILL_AREA(#4700);
#4720=SURFACE_SIDE_STYLE('',(#4710));
#4730=SURFACE_STYLE_USAGE(.BOTH.,#4720);
#4740=PRESENTATION_STYLE_ASSIGNMENT((#4730));
#4750=CLOSED_SHELL('',(#400,#1360,#1740,#2050,#2360,#2670,#2990,#3300,
#3610,#3920,#4290,#4480,#4670));
#4760=MANIFOLD_SOLID_BREP('',#4750);
#4770=CARTESIAN_POINT('',(0.,0.,0.));
#4780=DIRECTION('',(0.,0.,1.));
#4790=DIRECTION('',(1.,0.,0.));
#4800=AXIS2_PLACEMENT_3D('',#4770,#4780,#4790);
#4810=APPLICATION_CONTEXT(' ');
#4820=APPLICATION_PROTOCOL_DEFINITION(' ','automotive_design',1998,#4810
);
#4830=PRODUCT_CONTEXT('',#4810,'mechanical');
#4840=PRODUCT_DEFINITION_CONTEXT('part definition',#4810,'design');
#4850=PRODUCT('D-PT_4-QUATTRO-select','D-PT_4-QUATTRO-select','',(#4830)
);
#4860=PRODUCT_RELATED_PRODUCT_CATEGORY('part',' ',(#4850));
#4870=PRODUCT_DEFINITION_FORMATION_WITH_SPECIFIED_SOURCE('','',#4850,
.BOUGHT.);
#4880=PRODUCT_DEFINITION('',' ',#4870,#4840);
#4890=PRODUCT_DEFINITION_SHAPE('','',#4880);
#4900=DIMENSIONAL_EXPONENTS(1.,0.,0.,0.,0.,0.,0.);
#4910=DIMENSIONAL_EXPONENTS(0.,0.,0.,0.,0.,0.,0.);
#4920=DIMENSIONAL_EXPONENTS(0.,0.,0.,0.,0.,0.,0.);
#4930=(LENGTH_UNIT() NAMED_UNIT(*) SI_UNIT(.MILLI.,.METRE.));
#4940=(NAMED_UNIT(*) PLANE_ANGLE_UNIT() SI_UNIT($,.RADIAN.));
#4950=(NAMED_UNIT(*) SI_UNIT($,.STERADIAN.) SOLID_ANGLE_UNIT());
#4960=(GEOMETRIC_REPRESENTATION_CONTEXT(3) 
GLOBAL_UNCERTAINTY_ASSIGNED_CONTEXT((#4970)) 
GLOBAL_UNIT_ASSIGNED_CONTEXT((#4930,#4940,#4950)) REPRESENTATION_CONTEXT
('',''));
#4970=UNCERTAINTY_MEASURE_WITH_UNIT(LENGTH_MEASURE(1.E-6),#4930,
'distance_accuracy_value','maximum gap value');
#4980=ADVANCED_BREP_SHAPE_REPRESENTATION('',(#4800,#4760),#4960);
#4990=SHAPE_DEFINITION_REPRESENTATION(#4890,#4980);
#5000=COLOUR_RGB('',0.560784339904785,0.588235318660736,
0.600000023841858);
#5010=FILL_AREA_STYLE_COLOUR('',#5000);
#5020=FILL_AREA_STYLE('',(#5010));
#5030=SURFACE_STYLE_FILL_AREA(#5020);
#5040=SURFACE_SIDE_STYLE('',(#5030));
#5050=SURFACE_STYLE_USAGE(.BOTH.,#5040);
#5060=PRESENTATION_STYLE_ASSIGNMENT((#5050));
#5070=STYLED_ITEM('',(#5060),#4760);
#5080=OVER_RIDING_STYLED_ITEM('',(#470),#400,#5070);
#5090=OVER_RIDING_STYLED_ITEM('',(#1430),#1360,#5070);
#5100=OVER_RIDING_STYLED_ITEM('',(#1810),#1740,#5070);
#5110=OVER_RIDING_STYLED_ITEM('',(#2120),#2050,#5070);
#5120=OVER_RIDING_STYLED_ITEM('',(#2430),#2360,#5070);
#5130=OVER_RIDING_STYLED_ITEM('',(#2740),#2670,#5070);
#5140=OVER_RIDING_STYLED_ITEM('',(#3060),#2990,#5070);
#5150=OVER_RIDING_STYLED_ITEM('',(#3370),#3300,#5070);
#5160=OVER_RIDING_STYLED_ITEM('',(#3680),#3610,#5070);
#5170=OVER_RIDING_STYLED_ITEM('',(#3990),#3920,#5070);
#5180=OVER_RIDING_STYLED_ITEM('',(#4360),#4290,#5070);
#5190=OVER_RIDING_STYLED_ITEM('',(#4550),#4480,#5070);
#5200=OVER_RIDING_STYLED_ITEM('',(#4740),#4670,#5070);
#5210=DRAUGHTING_MODEL('',(#5070,#5080,#5090,#5100,#5110,#5120,#5130,
#5140,#5150,#5160,#5170,#5180,#5190,#5200),#4960);
#5220=CARTESIAN_POINT('',(-0.999999999999992,57.7000000034791,
9.05000000000032));
#5230=DIRECTION('',(1.,-2.77555756156289E-17,-1.38777878078144E-16));
#5240=DIRECTION('',(2.77555756156289E-17,1.,-7.70371977754895E-34));
#5250=AXIS2_PLACEMENT_3D('',#5220,#5230,#5240);
#5260=ITEM_DEFINED_TRANSFORMATION('D-PT_4-QUATTRO-select','',#4800,#5250
);
#5270=APPLICATION_CONTEXT(' ');
#5280=APPLICATION_PROTOCOL_DEFINITION(' ','automotive_design',1998,#5270
);
#5290=PRODUCT_CONTEXT('',#5270,'mechanical');
#5300=PRODUCT_DEFINITION_CONTEXT('part definition',#5270,'design');
#5310=PRODUCT('D-PT_4-QUATTRO-select','D-PT_4-QUATTRO-select','',(#5290)
);
#5320=PRODUCT_RELATED_PRODUCT_CATEGORY('part',' ',(#5310));
#5330=PRODUCT_DEFINITION_FORMATION_WITH_SPECIFIED_SOURCE('','',#5310,
.BOUGHT.);
#5340=PRODUCT_DEFINITION('',' ',#5330,#5300);
#5350=PRODUCT_DEFINITION_SHAPE('','',#5340);
#5360=DIMENSIONAL_EXPONENTS(1.,0.,0.,0.,0.,0.,0.);
#5370=DIMENSIONAL_EXPONENTS(0.,0.,0.,0.,0.,0.,0.);
#5380=DIMENSIONAL_EXPONENTS(0.,0.,0.,0.,0.,0.,0.);
#5390=(LENGTH_UNIT() NAMED_UNIT(*) SI_UNIT(.MILLI.,.METRE.));
#5400=(NAMED_UNIT(*) PLANE_ANGLE_UNIT() SI_UNIT($,.RADIAN.));
#5410=(NAMED_UNIT(*) SI_UNIT($,.STERADIAN.) SOLID_ANGLE_UNIT());
#5420=(GEOMETRIC_REPRESENTATION_CONTEXT(3) 
GLOBAL_UNCERTAINTY_ASSIGNED_CONTEXT((#5430)) 
GLOBAL_UNIT_ASSIGNED_CONTEXT((#5390,#5400,#5410)) REPRESENTATION_CONTEXT
('',''));
#5430=UNCERTAINTY_MEASURE_WITH_UNIT(LENGTH_MEASURE(1.E-6),#5390,
'distance_accuracy_value','maximum gap value');
#5440=SHAPE_REPRESENTATION('',(#4800,#5250),#5420);
#5450=SHAPE_DEFINITION_REPRESENTATION(#5350,#5440);
#5460=(REPRESENTATION_RELATIONSHIP('','',#4980,#5440) 
REPRESENTATION_RELATIONSHIP_WITH_TRANSFORMATION(#5260) 
SHAPE_REPRESENTATION_RELATIONSHIP());
#5470=NEXT_ASSEMBLY_USAGE_OCCURRENCE('1','','D-PT_4-QUATTRO-select',
#5340,#4880,'');
#5480=PRODUCT_DEFINITION_SHAPE('','',#5470);
#5490=CONTEXT_DEPENDENT_SHAPE_REPRESENTATION(#5460,#5480);
ENDSEC;
END-ISO-10303-21;
