ISO-10303-21;
HEADER;
FILE_DESCRIPTION(('Creo Elements/Direct Modeling STEP Export'),'2;1');
FILE_NAME(
'C:/temp/JobSpoolerServerData/JobServer Files/900a7140-8f0b-49f5-af42-e3
a5c346cdb6/work/output/model.stp','2019-02-19T 1:17:09',(''),(''),
'Creo Elements/Direct Modeling STEP processor for AP214 (Solid Model)',
'Creo Elements/Direct Modeling 20.1A  29-Sep-2018 (C) Parametric Technol
ogy GmbH','');
FILE_SCHEMA(('AUTOMOTIVE_DESIGN { 1 0 10303 214 1 1 1 1 }'));
ENDSEC;
DATA;
#10=CARTESIAN_POINT('',(27.8321672205257,-38.2000000000014,53.17));
#20=DIRECTION('',(-0.,-1.,-0.));
#30=DIRECTION('',(-1.,0.,0.));
#40=AXIS2_PLACEMENT_3D('',#10,#20,#30);
#50=PLANE('',#40);
#60=CARTESIAN_POINT('',(11.4461541156283,-38.2000000000014,55.27));
#70=DIRECTION('',(-1.,0.,0.));
#80=VECTOR('',#70,1.);
#90=LINE('',#60,#80);
#100=CARTESIAN_POINT('',(33.8505778365011,-38.2000000000014,55.27));
#110=VERTEX_POINT('',#100);
#120=CARTESIAN_POINT('',(-22.2678327783247,-38.2000000000014,55.27));
#130=VERTEX_POINT('',#120);
#140=EDGE_CURVE('',#110,#130,#90,.T.);
#150=ORIENTED_EDGE('',*,*,#140,.T.);
#160=CARTESIAN_POINT('',(33.8505778365067,-38.2000000000014,53.17));
#170=DIRECTION('',(2.66975915513724E-12,0.,-1.));
#180=VECTOR('',#170,1.);
#190=LINE('',#160,#180);
#200=CARTESIAN_POINT('',(33.8505778365067,-38.2000000000014,53.17));
#210=VERTEX_POINT('',#200);
#220=EDGE_CURVE('',#110,#210,#190,.T.);
#230=ORIENTED_EDGE('',*,*,#220,.F.);
#240=CARTESIAN_POINT('',(11.4461541156283,-38.2000000000014,53.17));
#250=DIRECTION('',(-1.,0.,0.));
#260=VECTOR('',#250,1.);
#270=LINE('',#240,#260);
#280=CARTESIAN_POINT('',(-22.2678327783247,-38.2000000000014,53.17));
#290=VERTEX_POINT('',#280);
#300=EDGE_CURVE('',#210,#290,#270,.T.);
#310=ORIENTED_EDGE('',*,*,#300,.F.);
#320=CARTESIAN_POINT('',(-22.2678327783247,-38.2000000000014,53.17));
#330=DIRECTION('',(0.,0.,-1.));
#340=VECTOR('',#330,1.);
#350=LINE('',#320,#340);
#360=EDGE_CURVE('',#130,#290,#350,.T.);
#370=ORIENTED_EDGE('',*,*,#360,.T.);
#380=EDGE_LOOP('',(#370,#310,#230,#150));
#390=FACE_OUTER_BOUND('',#380,.T.);
#400=ADVANCED_FACE('',(#390),#50,.T.);
#410=COLOUR_RGB('',0.560784339904785,0.588235318660736,0.600000023841858
);
#420=FILL_AREA_STYLE_COLOUR('',#410);
#430=FILL_AREA_STYLE('',(#420));
#440=SURFACE_STYLE_FILL_AREA(#430);
#450=SURFACE_SIDE_STYLE('',(#440));
#460=SURFACE_STYLE_USAGE(.BOTH.,#450);
#470=PRESENTATION_STYLE_ASSIGNMENT((#460));
#480=CARTESIAN_POINT('',(39.6321672205258,-33.200000000009,53.17));
#490=DIRECTION('',(1.,0.,0.));
#500=DIRECTION('',(0.,-1.,0.));
#510=AXIS2_PLACEMENT_3D('',#480,#490,#500);
#520=PLANE('',#510);
#530=CARTESIAN_POINT('',(39.6321672205258,-12.1300507694265,53.17));
#540=DIRECTION('',(0.,-1.,0.));
#550=VECTOR('',#540,1.);
#560=LINE('',#530,#550);
#570=CARTESIAN_POINT('',(39.6321672205258,-33.200000000009,53.17));
#580=VERTEX_POINT('',#570);
#590=CARTESIAN_POINT('',(39.6321672205258,-35.2466027974288,53.17));
#600=VERTEX_POINT('',#590);
#610=EDGE_CURVE('',#580,#600,#560,.T.);
#620=ORIENTED_EDGE('',*,*,#610,.F.);
#630=CARTESIAN_POINT('',(39.6321672205258,-35.2466027974288,53.17));
#640=DIRECTION('',(0.,-1.36378748067433E-12,-1.));
#650=VECTOR('',#640,1.);
#660=LINE('',#630,#650);
#670=CARTESIAN_POINT('',(39.6321672205258,-35.2466027974259,55.27));
#680=VERTEX_POINT('',#670);
#690=EDGE_CURVE('',#680,#600,#660,.T.);
#700=ORIENTED_EDGE('',*,*,#690,.T.);
#710=CARTESIAN_POINT('',(39.6321672205258,-12.1300507694265,55.27));
#720=DIRECTION('',(0.,-1.,0.));
#730=VECTOR('',#720,1.);
#740=LINE('',#710,#730);
#750=CARTESIAN_POINT('',(39.6321672205258,-33.200000000009,55.27));
#760=VERTEX_POINT('',#750);
#770=EDGE_CURVE('',#760,#680,#740,.T.);
#780=ORIENTED_EDGE('',*,*,#770,.T.);
#790=CARTESIAN_POINT('',(39.6321672205258,-33.200000000009,53.17));
#800=DIRECTION('',(0.,0.,1.));
#810=VECTOR('',#800,1.);
#820=LINE('',#790,#810);
#830=EDGE_CURVE('',#580,#760,#820,.T.);
#840=ORIENTED_EDGE('',*,*,#830,.T.);
#850=EDGE_LOOP('',(#840,#780,#700,#620));
#860=FACE_OUTER_BOUND('',#850,.T.);
#870=ADVANCED_FACE('',(#860),#520,.T.);
#880=COLOUR_RGB('',0.560784339904785,0.588235318660736,0.600000023841858
);
#890=FILL_AREA_STYLE_COLOUR('',#880);
#900=FILL_AREA_STYLE('',(#890));
#910=SURFACE_STYLE_FILL_AREA(#900);
#920=SURFACE_SIDE_STYLE('',(#910));
#930=SURFACE_STYLE_USAGE(.BOTH.,#920);
#940=PRESENTATION_STYLE_ASSIGNMENT((#930));
#950=CARTESIAN_POINT('',(39.6321672205258,-16.5103385634744,53.17));
#960=DIRECTION('',(1.,0.,0.));
#970=DIRECTION('',(0.,-1.,0.));
#980=AXIS2_PLACEMENT_3D('',#950,#960,#970);
#990=PLANE('',#980);
#1000=CARTESIAN_POINT('',(39.6321672205258,-12.1300507694265,53.17));
#1010=DIRECTION('',(0.,-1.,0.));
#1020=VECTOR('',#1010,1.);
#1030=LINE('',#1000,#1020);
#1040=CARTESIAN_POINT('',(39.6321672205258,-16.2348030047483,53.17));
#1050=VERTEX_POINT('',#1040);
#1060=CARTESIAN_POINT('',(39.6321672205258,-21.200000000009,53.17));
#1070=VERTEX_POINT('',#1060);
#1080=EDGE_CURVE('',#1050,#1070,#1030,.T.);
#1090=ORIENTED_EDGE('',*,*,#1080,.F.);
#1100=CARTESIAN_POINT('',(39.6321672205258,-21.200000000009,53.17));
#1110=DIRECTION('',(0.,0.,1.));
#1120=VECTOR('',#1110,1.);
#1130=LINE('',#1100,#1120);
#1140=CARTESIAN_POINT('',(39.6321672205258,-21.200000000009,55.27));
#1150=VERTEX_POINT('',#1140);
#1160=EDGE_CURVE('',#1070,#1150,#1130,.T.);
#1170=ORIENTED_EDGE('',*,*,#1160,.F.);
#1180=CARTESIAN_POINT('',(39.6321672205258,-12.1300507694265,55.27));
#1190=DIRECTION('',(0.,-1.,0.));
#1200=VECTOR('',#1190,1.);
#1210=LINE('',#1180,#1200);
#1220=CARTESIAN_POINT('',(39.6321672205258,-16.2348030047491,55.27));
#1230=VERTEX_POINT('',#1220);
#1240=EDGE_CURVE('',#1230,#1150,#1210,.T.);
#1250=ORIENTED_EDGE('',*,*,#1240,.T.);
#1260=CARTESIAN_POINT('',(39.6321672205258,-16.2348030047483,53.17));
#1270=DIRECTION('',(0.,-4.08304925520287E-13,1.));
#1280=VECTOR('',#1270,1.);
#1290=LINE('',#1260,#1280);
#1300=EDGE_CURVE('',#1050,#1230,#1290,.T.);
#1310=ORIENTED_EDGE('',*,*,#1300,.T.);
#1320=EDGE_LOOP('',(#1310,#1250,#1170,#1090));
#1330=FACE_OUTER_BOUND('',#1320,.T.);
#1340=ADVANCED_FACE('',(#1330),#990,.T.);
#1350=COLOUR_RGB('',0.560784339904785,0.588235318660736,
0.600000023841858);
#1360=FILL_AREA_STYLE_COLOUR('',#1350);
#1370=FILL_AREA_STYLE('',(#1360));
#1380=SURFACE_STYLE_FILL_AREA(#1370);
#1390=SURFACE_SIDE_STYLE('',(#1380));
#1400=SURFACE_STYLE_USAGE(.BOTH.,#1390);
#1410=PRESENTATION_STYLE_ASSIGNMENT((#1400));
#1420=CARTESIAN_POINT('',(47.3734375811366,-41.1050024000007,53.17));
#1430=DIRECTION('',(0.,0.,1.));
#1440=DIRECTION('',(-1.,0.,0.));
#1450=AXIS2_PLACEMENT_3D('',#1420,#1430,#1440);
#1460=PLANE('',#1450);
#1470=CARTESIAN_POINT('',(-21.5376608590388,-12.1300507694265,53.17));
#1480=DIRECTION('',(-0.173648177667356,-0.984807753012133,0.));
#1490=VECTOR('',#1480,1.);
#1500=LINE('',#1470,#1490);
#1510=CARTESIAN_POINT('',(-21.0121975045079,-9.1500000000079,53.17));
#1520=VERTEX_POINT('',#1510);
#1530=CARTESIAN_POINT('',(-22.2678327783246,-16.2710615004573,53.17));
#1540=VERTEX_POINT('',#1530);
#1550=EDGE_CURVE('',#1520,#1540,#1500,.T.);
#1560=ORIENTED_EDGE('',*,*,#1550,.F.);
#1570=CARTESIAN_POINT('',(-22.2678327783247,-12.1300507694265,53.17));
#1580=DIRECTION('',(0.,1.,0.));
#1590=VECTOR('',#1580,1.);
#1600=LINE('',#1570,#1590);
#1610=CARTESIAN_POINT('',(-22.2678327783247,-21.2000000000028,53.17));
#1620=VERTEX_POINT('',#1610);
#1630=EDGE_CURVE('',#1620,#1540,#1600,.T.);
#1640=ORIENTED_EDGE('',*,*,#1630,.T.);
#1650=CARTESIAN_POINT('',(-36.5769207995789,-25.7000000000027,53.17));
#1660=DIRECTION('',(0.,0.,1.));
#1670=DIRECTION('',(1.,0.,0.));
#1680=AXIS2_PLACEMENT_3D('',#1650,#1660,#1670);
#1690=CIRCLE('',#1680,15.);
#1700=CARTESIAN_POINT('',(-22.2678327783247,-30.2000000000027,53.17));
#1710=VERTEX_POINT('',#1700);
#1720=EDGE_CURVE('',#1710,#1620,#1690,.T.);
#1730=ORIENTED_EDGE('',*,*,#1720,.T.);
#1740=CARTESIAN_POINT('',(-22.2678327783247,-12.1300507694265,53.17));
#1750=DIRECTION('',(0.,1.,0.));
#1760=VECTOR('',#1750,1.);
#1770=LINE('',#1740,#1760);
#1780=EDGE_CURVE('',#290,#1710,#1770,.T.);
#1790=ORIENTED_EDGE('',*,*,#1780,.T.);
#1800=ORIENTED_EDGE('',*,*,#300,.T.);
#1810=CARTESIAN_POINT('',(11.4461541156283,-49.6448048706813,53.17));
#1820=DIRECTION('',(0.890536864553145,0.454911082379683,0.));
#1830=VECTOR('',#1820,1.);
#1840=LINE('',#1810,#1830);
#1850=EDGE_CURVE('',#210,#600,#1840,.T.);
#1860=ORIENTED_EDGE('',*,*,#1850,.F.);
#1870=ORIENTED_EDGE('',*,*,#610,.T.);
#1880=CARTESIAN_POINT('',(53.3798943053933,-27.200000000009,53.17));
#1890=DIRECTION('',(0.,0.,1.));
#1900=DIRECTION('',(1.,0.,0.));
#1910=AXIS2_PLACEMENT_3D('',#1880,#1890,#1900);
#1920=CIRCLE('',#1910,15.);
#1930=EDGE_CURVE('',#1070,#580,#1920,.T.);
#1940=ORIENTED_EDGE('',*,*,#1930,.T.);
#1950=ORIENTED_EDGE('',*,*,#1080,.T.);
#1960=CARTESIAN_POINT('',(38.9083886523003,-12.1300507694265,53.17));
#1970=DIRECTION('',(0.173648177670384,-0.984807753011599,0.));
#1980=VECTOR('',#1970,1.);
#1990=LINE('',#1960,#1980);
#2000=CARTESIAN_POINT('',(38.38292529776,-9.1500000000079,53.17));
#2010=VERTEX_POINT('',#2000);
#2020=EDGE_CURVE('',#2010,#1050,#1990,.T.);
#2030=ORIENTED_EDGE('',*,*,#2020,.T.);
#2040=CARTESIAN_POINT('',(11.4461541156283,-9.1500000000079,53.17));
#2050=DIRECTION('',(1.,0.,0.));
#2060=VECTOR('',#2050,1.);
#2070=LINE('',#2040,#2060);
#2080=EDGE_CURVE('',#1520,#2010,#2070,.T.);
#2090=ORIENTED_EDGE('',*,*,#2080,.T.);
#2100=EDGE_LOOP('',(#2090,#2030,#1950,#1940,#1870,#1860,#1800,#1790,
#1730,#1640,#1560));
#2110=FACE_OUTER_BOUND('',#2100,.T.);
#2120=ADVANCED_FACE('',(#2110),#1460,.F.);
#2130=COLOUR_RGB('',0.560784339904785,0.588235318660736,
0.600000023841858);
#2140=FILL_AREA_STYLE_COLOUR('',#2130);
#2150=FILL_AREA_STYLE('',(#2140));
#2160=SURFACE_STYLE_FILL_AREA(#2150);
#2170=SURFACE_SIDE_STYLE('',(#2160));
#2180=SURFACE_STYLE_USAGE(.BOTH.,#2170);
#2190=PRESENTATION_STYLE_ASSIGNMENT((#2180));
#2200=CARTESIAN_POINT('',(6.00748472864273,-22.6970242313422,55.27));
#2210=DIRECTION('',(0.,0.,1.));
#2220=DIRECTION('',(1.,0.,0.));
#2230=AXIS2_PLACEMENT_3D('',#2200,#2210,#2220);
#2240=PLANE('',#2230);
#2250=CARTESIAN_POINT('',(38.9083886523002,-12.1300507694265,55.27));
#2260=DIRECTION('',(0.173648177670384,-0.984807753011599,0.));
#2270=VECTOR('',#2260,1.);
#2280=LINE('',#2250,#2270);
#2290=CARTESIAN_POINT('',(38.3829252977599,-9.1500000000079,55.27));
#2300=VERTEX_POINT('',#2290);
#2310=EDGE_CURVE('',#2300,#1230,#2280,.T.);
#2320=ORIENTED_EDGE('',*,*,#2310,.F.);
#2330=ORIENTED_EDGE('',*,*,#1240,.F.);
#2340=CARTESIAN_POINT('',(53.3798943053933,-27.200000000009,55.27));
#2350=DIRECTION('',(0.,0.,1.));
#2360=DIRECTION('',(1.,0.,0.));
#2370=AXIS2_PLACEMENT_3D('',#2340,#2350,#2360);
#2380=CIRCLE('',#2370,15.);
#2390=EDGE_CURVE('',#1150,#760,#2380,.T.);
#2400=ORIENTED_EDGE('',*,*,#2390,.F.);
#2410=ORIENTED_EDGE('',*,*,#770,.F.);
#2420=CARTESIAN_POINT('',(11.4461541156283,-49.6448048706784,55.27));
#2430=DIRECTION('',(0.890536864553145,0.454911082379683,0.));
#2440=VECTOR('',#2430,1.);
#2450=LINE('',#2420,#2440);
#2460=EDGE_CURVE('',#110,#680,#2450,.T.);
#2470=ORIENTED_EDGE('',*,*,#2460,.T.);
#2480=ORIENTED_EDGE('',*,*,#140,.F.);
#2490=CARTESIAN_POINT('',(-22.2678327783247,-12.1300507694265,55.27));
#2500=DIRECTION('',(0.,1.,0.));
#2510=VECTOR('',#2500,1.);
#2520=LINE('',#2490,#2510);
#2530=CARTESIAN_POINT('',(-22.2678327783247,-30.2000000000027,55.27));
#2540=VERTEX_POINT('',#2530);
#2550=EDGE_CURVE('',#130,#2540,#2520,.T.);
#2560=ORIENTED_EDGE('',*,*,#2550,.F.);
#2570=CARTESIAN_POINT('',(-36.5769207995789,-25.7000000000027,55.27));
#2580=DIRECTION('',(0.,0.,1.));
#2590=DIRECTION('',(1.,0.,0.));
#2600=AXIS2_PLACEMENT_3D('',#2570,#2580,#2590);
#2610=CIRCLE('',#2600,15.);
#2620=CARTESIAN_POINT('',(-22.2678327783247,-21.2000000000028,55.27));
#2630=VERTEX_POINT('',#2620);
#2640=EDGE_CURVE('',#2540,#2630,#2610,.T.);
#2650=ORIENTED_EDGE('',*,*,#2640,.F.);
#2660=CARTESIAN_POINT('',(-22.2678327783247,-12.1300507694265,55.27));
#2670=DIRECTION('',(0.,1.,0.));
#2680=VECTOR('',#2670,1.);
#2690=LINE('',#2660,#2680);
#2700=CARTESIAN_POINT('',(-22.2678327783247,-16.2710615004581,55.27));
#2710=VERTEX_POINT('',#2700);
#2720=EDGE_CURVE('',#2630,#2710,#2690,.T.);
#2730=ORIENTED_EDGE('',*,*,#2720,.F.);
#2740=CARTESIAN_POINT('',(-21.5376608590387,-12.1300507694265,55.27));
#2750=DIRECTION('',(-0.173648177667356,-0.984807753012133,0.));
#2760=VECTOR('',#2750,1.);
#2770=LINE('',#2740,#2760);
#2780=CARTESIAN_POINT('',(-21.0121975045078,-9.1500000000079,55.27));
#2790=VERTEX_POINT('',#2780);
#2800=EDGE_CURVE('',#2790,#2710,#2770,.T.);
#2810=ORIENTED_EDGE('',*,*,#2800,.T.);
#2820=CARTESIAN_POINT('',(11.4461541156283,-9.1500000000079,55.27));
#2830=DIRECTION('',(1.,0.,0.));
#2840=VECTOR('',#2830,1.);
#2850=LINE('',#2820,#2840);
#2860=EDGE_CURVE('',#2790,#2300,#2850,.T.);
#2870=ORIENTED_EDGE('',*,*,#2860,.F.);
#2880=EDGE_LOOP('',(#2870,#2810,#2730,#2650,#2560,#2480,#2470,#2410,
#2400,#2330,#2320));
#2890=FACE_OUTER_BOUND('',#2880,.T.);
#2900=ADVANCED_FACE('',(#2890),#2240,.T.);
#2910=COLOUR_RGB('',0.560784339904785,0.588235318660736,
0.600000023841858);
#2920=FILL_AREA_STYLE_COLOUR('',#2910);
#2930=FILL_AREA_STYLE('',(#2920));
#2940=SURFACE_STYLE_FILL_AREA(#2930);
#2950=SURFACE_SIDE_STYLE('',(#2940));
#2960=SURFACE_STYLE_USAGE(.BOTH.,#2950);
#2970=PRESENTATION_STYLE_ASSIGNMENT((#2960));
#2980=CARTESIAN_POINT('',(39.6716239022322,-16.4585729663681,
53.1700000005405));
#2990=DIRECTION('',(0.984807753011599,0.173648177670384,
7.09014062504396E-14));
#3000=DIRECTION('',(0.173648177670384,-0.9848077530116,
-4.02194342388776E-13));
#3010=AXIS2_PLACEMENT_3D('',#2980,#2990,#3000);
#3020=PLANE('',#3010);
#3030=ORIENTED_EDGE('',*,*,#2020,.F.);
#3040=ORIENTED_EDGE('',*,*,#1300,.F.);
#3050=ORIENTED_EDGE('',*,*,#2310,.T.);
#3060=CARTESIAN_POINT('',(38.38292529776,-9.1500000000079,53.17));
#3070=DIRECTION('',(-7.19951747268632E-14,0.,1.));
#3080=VECTOR('',#3070,1.);
#3090=LINE('',#3060,#3080);
#3100=EDGE_CURVE('',#2010,#2300,#3090,.T.);
#3110=ORIENTED_EDGE('',*,*,#3100,.T.);
#3120=EDGE_LOOP('',(#3110,#3050,#3040,#3030));
#3130=FACE_OUTER_BOUND('',#3120,.T.);
#3140=ADVANCED_FACE('',(#3130),#3020,.T.);
#3150=COLOUR_RGB('',0.560784339904785,0.588235318660736,
0.600000023841858);
#3160=FILL_AREA_STYLE_COLOUR('',#3150);
#3170=FILL_AREA_STYLE('',(#3160));
#3180=SURFACE_STYLE_FILL_AREA(#3170);
#3190=SURFACE_SIDE_STYLE('',(#3180));
#3200=SURFACE_STYLE_USAGE(.BOTH.,#3190);
#3210=PRESENTATION_STYLE_ASSIGNMENT((#3200));
#3220=CARTESIAN_POINT('',(53.3798943053933,-27.200000000009,53.17));
#3230=DIRECTION('',(0.,0.,1.));
#3240=DIRECTION('',(1.,0.,0.));
#3250=AXIS2_PLACEMENT_3D('',#3220,#3230,#3240);
#3260=CYLINDRICAL_SURFACE('',#3250,15.);
#3270=ORIENTED_EDGE('',*,*,#1930,.F.);
#3280=ORIENTED_EDGE('',*,*,#830,.F.);
#3290=ORIENTED_EDGE('',*,*,#2390,.T.);
#3300=ORIENTED_EDGE('',*,*,#1160,.T.);
#3310=EDGE_LOOP('',(#3300,#3290,#3280,#3270));
#3320=FACE_OUTER_BOUND('',#3310,.T.);
#3330=ADVANCED_FACE('',(#3320),#3260,.F.);
#3340=COLOUR_RGB('',0.560784339904785,0.588235318660736,
0.600000023841858);
#3350=FILL_AREA_STYLE_COLOUR('',#3340);
#3360=FILL_AREA_STYLE('',(#3350));
#3370=SURFACE_STYLE_FILL_AREA(#3360);
#3380=SURFACE_SIDE_STYLE('',(#3370));
#3390=SURFACE_STYLE_USAGE(.BOTH.,#3380);
#3400=PRESENTATION_STYLE_ASSIGNMENT((#3390));
#3410=CARTESIAN_POINT('',(-36.5769207995789,-25.7000000000027,53.17));
#3420=DIRECTION('',(0.,0.,1.));
#3430=DIRECTION('',(1.,0.,0.));
#3440=AXIS2_PLACEMENT_3D('',#3410,#3420,#3430);
#3450=CYLINDRICAL_SURFACE('',#3440,15.);
#3460=ORIENTED_EDGE('',*,*,#1720,.F.);
#3470=CARTESIAN_POINT('',(-22.2678327783247,-21.2000000000028,53.17));
#3480=DIRECTION('',(0.,0.,1.));
#3490=VECTOR('',#3480,1.);
#3500=LINE('',#3470,#3490);
#3510=EDGE_CURVE('',#1620,#2630,#3500,.T.);
#3520=ORIENTED_EDGE('',*,*,#3510,.F.);
#3530=ORIENTED_EDGE('',*,*,#2640,.T.);
#3540=CARTESIAN_POINT('',(-22.2678327783247,-30.2000000000027,53.17));
#3550=DIRECTION('',(0.,0.,1.));
#3560=VECTOR('',#3550,1.);
#3570=LINE('',#3540,#3560);
#3580=EDGE_CURVE('',#1710,#2540,#3570,.T.);
#3590=ORIENTED_EDGE('',*,*,#3580,.T.);
#3600=EDGE_LOOP('',(#3590,#3530,#3520,#3460));
#3610=FACE_OUTER_BOUND('',#3600,.T.);
#3620=ADVANCED_FACE('',(#3610),#3450,.F.);
#3630=COLOUR_RGB('',0.560784339904785,0.588235318660736,
0.600000023841858);
#3640=FILL_AREA_STYLE_COLOUR('',#3630);
#3650=FILL_AREA_STYLE('',(#3640));
#3660=SURFACE_STYLE_FILL_AREA(#3650);
#3670=SURFACE_SIDE_STYLE('',(#3660));
#3680=SURFACE_STYLE_USAGE(.BOTH.,#3670);
#3690=PRESENTATION_STYLE_ASSIGNMENT((#3680));
#3700=CARTESIAN_POINT('',(-22.2980735231193,-16.4425652866224,
53.1700000003372));
#3710=DIRECTION('',(0.984807753012133,-0.173648177667356,
-7.09172223143407E-14));
#3720=DIRECTION('',(-0.173648177667356,-0.984807753012134,
-4.02191553608091E-13));
#3730=AXIS2_PLACEMENT_3D('',#3700,#3710,#3720);
#3740=PLANE('',#3730);
#3750=ORIENTED_EDGE('',*,*,#1550,.T.);
#3760=CARTESIAN_POINT('',(-21.0121975045079,-9.1500000000079,53.17));
#3770=DIRECTION('',(-7.20112347790046E-14,0.,-1.));
#3780=VECTOR('',#3770,1.);
#3790=LINE('',#3760,#3780);
#3800=EDGE_CURVE('',#2790,#1520,#3790,.T.);
#3810=ORIENTED_EDGE('',*,*,#3800,.T.);
#3820=ORIENTED_EDGE('',*,*,#2800,.F.);
#3830=CARTESIAN_POINT('',(-22.2678327783246,-16.2710615004573,53.17));
#3840=DIRECTION('',(0.,4.08396006609359E-13,-1.));
#3850=VECTOR('',#3840,1.);
#3860=LINE('',#3830,#3850);
#3870=EDGE_CURVE('',#2710,#1540,#3860,.T.);
#3880=ORIENTED_EDGE('',*,*,#3870,.F.);
#3890=EDGE_LOOP('',(#3880,#3820,#3810,#3750));
#3900=FACE_OUTER_BOUND('',#3890,.T.);
#3910=ADVANCED_FACE('',(#3900),#3740,.F.);
#3920=COLOUR_RGB('',0.560784339904785,0.588235318660736,
0.600000023841858);
#3930=FILL_AREA_STYLE_COLOUR('',#3920);
#3940=FILL_AREA_STYLE('',(#3930));
#3950=SURFACE_STYLE_FILL_AREA(#3940);
#3960=SURFACE_SIDE_STYLE('',(#3950));
#3970=SURFACE_STYLE_USAGE(.BOTH.,#3960);
#3980=PRESENTATION_STYLE_ASSIGNMENT((#3970));
#3990=CARTESIAN_POINT('',(-22.2678327783247,-21.2000000000028,53.17));
#4000=DIRECTION('',(-1.,0.,0.));
#4010=DIRECTION('',(0.,1.,0.));
#4020=AXIS2_PLACEMENT_3D('',#3990,#4000,#4010);
#4030=PLANE('',#4020);
#4040=ORIENTED_EDGE('',*,*,#1630,.F.);
#4050=ORIENTED_EDGE('',*,*,#3870,.T.);
#4060=ORIENTED_EDGE('',*,*,#2720,.T.);
#4070=ORIENTED_EDGE('',*,*,#3510,.T.);
#4080=EDGE_LOOP('',(#4070,#4060,#4050,#4040));
#4090=FACE_OUTER_BOUND('',#4080,.T.);
#4100=ADVANCED_FACE('',(#4090),#4030,.T.);
#4110=COLOUR_RGB('',0.560784339904785,0.588235318660736,
0.600000023841858);
#4120=FILL_AREA_STYLE_COLOUR('',#4110);
#4130=FILL_AREA_STYLE('',(#4120));
#4140=SURFACE_STYLE_FILL_AREA(#4130);
#4150=SURFACE_SIDE_STYLE('',(#4140));
#4160=SURFACE_STYLE_USAGE(.BOTH.,#4150);
#4170=PRESENTATION_STYLE_ASSIGNMENT((#4160));
#4180=CARTESIAN_POINT('',(22.14198938645,-44.1810737286371,
47.4425015519516));
#4190=DIRECTION('',(-0.454911082379683,0.890536864553144,
-1.21450302695655E-12));
#4200=DIRECTION('',(0.890536864553145,0.454911082379683,
2.37751894706302E-12));
#4210=AXIS2_PLACEMENT_3D('',#4180,#4190,#4200);
#4220=PLANE('',#4210);
#4230=ORIENTED_EDGE('',*,*,#1850,.T.);
#4240=ORIENTED_EDGE('',*,*,#220,.T.);
#4250=ORIENTED_EDGE('',*,*,#2460,.F.);
#4260=ORIENTED_EDGE('',*,*,#690,.F.);
#4270=EDGE_LOOP('',(#4260,#4250,#4240,#4230));
#4280=FACE_OUTER_BOUND('',#4270,.T.);
#4290=ADVANCED_FACE('',(#4280),#4220,.F.);
#4300=COLOUR_RGB('',0.560784339904785,0.588235318660736,
0.600000023841858);
#4310=FILL_AREA_STYLE_COLOUR('',#4300);
#4320=FILL_AREA_STYLE('',(#4310));
#4330=SURFACE_STYLE_FILL_AREA(#4320);
#4340=SURFACE_SIDE_STYLE('',(#4330));
#4350=SURFACE_STYLE_USAGE(.BOTH.,#4340);
#4360=PRESENTATION_STYLE_ASSIGNMENT((#4350));
#4370=CARTESIAN_POINT('',(-22.2678327783247,-38.2000000000015,53.17));
#4380=DIRECTION('',(-1.,0.,0.));
#4390=DIRECTION('',(0.,1.,0.));
#4400=AXIS2_PLACEMENT_3D('',#4370,#4380,#4390);
#4410=PLANE('',#4400);
#4420=ORIENTED_EDGE('',*,*,#360,.F.);
#4430=ORIENTED_EDGE('',*,*,#1780,.F.);
#4440=ORIENTED_EDGE('',*,*,#3580,.F.);
#4450=ORIENTED_EDGE('',*,*,#2550,.T.);
#4460=EDGE_LOOP('',(#4450,#4440,#4430,#4420));
#4470=FACE_OUTER_BOUND('',#4460,.T.);
#4480=ADVANCED_FACE('',(#4470),#4410,.T.);
#4490=COLOUR_RGB('',0.560784339904785,0.588235318660736,
0.600000023841858);
#4500=FILL_AREA_STYLE_COLOUR('',#4490);
#4510=FILL_AREA_STYLE('',(#4500));
#4520=SURFACE_STYLE_FILL_AREA(#4510);
#4530=SURFACE_SIDE_STYLE('',(#4520));
#4540=SURFACE_STYLE_USAGE(.BOTH.,#4530);
#4550=PRESENTATION_STYLE_ASSIGNMENT((#4540));
#4560=CARTESIAN_POINT('',(2.23689206783852,-9.1500000000079,53.17));
#4570=DIRECTION('',(-0.,1.,0.));
#4580=DIRECTION('',(1.,0.,0.));
#4590=AXIS2_PLACEMENT_3D('',#4560,#4570,#4580);
#4600=PLANE('',#4590);
#4610=ORIENTED_EDGE('',*,*,#2080,.F.);
#4620=ORIENTED_EDGE('',*,*,#3100,.F.);
#4630=ORIENTED_EDGE('',*,*,#2860,.T.);
#4640=ORIENTED_EDGE('',*,*,#3800,.F.);
#4650=EDGE_LOOP('',(#4640,#4630,#4620,#4610));
#4660=FACE_OUTER_BOUND('',#4650,.T.);
#4670=ADVANCED_FACE('',(#4660),#4600,.T.);
#4680=COLOUR_RGB('',0.560784339904785,0.588235318660736,
0.600000023841858);
#4690=FILL_AREA_STYLE_COLOUR('',#4680);
#4700=FILL_AREA_STYLE('',(#4690));
#4710=SURFACE_STYLE_FILL_AREA(#4700);
#4720=SURFACE_SIDE_STYLE('',(#4710));
#4730=SURFACE_STYLE_USAGE(.BOTH.,#4720);
#4740=PRESENTATION_STYLE_ASSIGNMENT((#4730));
#4750=CLOSED_SHELL('',(#400,#870,#1340,#2120,#2900,#3140,#3330,#3620,
#3910,#4100,#4290,#4480,#4670));
#4760=MANIFOLD_SOLID_BREP('',#4750);
#4770=CARTESIAN_POINT('',(0.,0.,0.));
#4780=DIRECTION('',(0.,0.,1.));
#4790=DIRECTION('',(1.,0.,0.));
#4800=AXIS2_PLACEMENT_3D('',#4770,#4780,#4790);
#4810=APPLICATION_CONTEXT(' ');
#4820=APPLICATION_PROTOCOL_DEFINITION(' ','automotive_design',1998,#4810
);
#4830=PRODUCT_CONTEXT('',#4810,'mechanical');
#4840=PRODUCT_DEFINITION_CONTEXT('part definition',#4810,'design');
#4850=PRODUCT('D-PT-2.5-MT-SELECT','D-PT-2.5-MT-SELECT','',(#4830));
#4860=PRODUCT_RELATED_PRODUCT_CATEGORY('part',' ',(#4850));
#4870=PRODUCT_DEFINITION_FORMATION_WITH_SPECIFIED_SOURCE('','',#4850,
.BOUGHT.);
#4880=PRODUCT_DEFINITION('',' ',#4870,#4840);
#4890=PRODUCT_DEFINITION_SHAPE('','',#4880);
#4900=DIMENSIONAL_EXPONENTS(1.,0.,0.,0.,0.,0.,0.);
#4910=DIMENSIONAL_EXPONENTS(0.,0.,0.,0.,0.,0.,0.);
#4920=DIMENSIONAL_EXPONENTS(0.,0.,0.,0.,0.,0.,0.);
#4930=(LENGTH_UNIT() NAMED_UNIT(*) SI_UNIT(.MILLI.,.METRE.));
#4940=(NAMED_UNIT(*) PLANE_ANGLE_UNIT() SI_UNIT($,.RADIAN.));
#4950=(NAMED_UNIT(*) SI_UNIT($,.STERADIAN.) SOLID_ANGLE_UNIT());
#4960=(GEOMETRIC_REPRESENTATION_CONTEXT(3) 
GLOBAL_UNCERTAINTY_ASSIGNED_CONTEXT((#4970)) 
GLOBAL_UNIT_ASSIGNED_CONTEXT((#4930,#4940,#4950)) REPRESENTATION_CONTEXT
('',''));
#4970=UNCERTAINTY_MEASURE_WITH_UNIT(LENGTH_MEASURE(1.E-6),#4930,
'distance_accuracy_value','maximum gap value');
#4980=ADVANCED_BREP_SHAPE_REPRESENTATION('',(#4800,#4760),#4960);
#4990=SHAPE_DEFINITION_REPRESENTATION(#4890,#4980);
#5000=COLOUR_RGB('',0.560784339904785,0.588235318660736,
0.600000023841858);
#5010=FILL_AREA_STYLE_COLOUR('',#5000);
#5020=FILL_AREA_STYLE('',(#5010));
#5030=SURFACE_STYLE_FILL_AREA(#5020);
#5040=SURFACE_SIDE_STYLE('',(#5030));
#5050=SURFACE_STYLE_USAGE(.BOTH.,#5040);
#5060=PRESENTATION_STYLE_ASSIGNMENT((#5050));
#5070=STYLED_ITEM('',(#5060),#4760);
#5080=OVER_RIDING_STYLED_ITEM('',(#470),#400,#5070);
#5090=OVER_RIDING_STYLED_ITEM('',(#940),#870,#5070);
#5100=OVER_RIDING_STYLED_ITEM('',(#1410),#1340,#5070);
#5110=OVER_RIDING_STYLED_ITEM('',(#2190),#2120,#5070);
#5120=OVER_RIDING_STYLED_ITEM('',(#2970),#2900,#5070);
#5130=OVER_RIDING_STYLED_ITEM('',(#3210),#3140,#5070);
#5140=OVER_RIDING_STYLED_ITEM('',(#3400),#3330,#5070);
#5150=OVER_RIDING_STYLED_ITEM('',(#3690),#3620,#5070);
#5160=OVER_RIDING_STYLED_ITEM('',(#3980),#3910,#5070);
#5170=OVER_RIDING_STYLED_ITEM('',(#4170),#4100,#5070);
#5180=OVER_RIDING_STYLED_ITEM('',(#4360),#4290,#5070);
#5190=OVER_RIDING_STYLED_ITEM('',(#4550),#4480,#5070);
#5200=OVER_RIDING_STYLED_ITEM('',(#4740),#4670,#5070);
#5210=DRAUGHTING_MODEL('',(#5070,#5080,#5090,#5100,#5110,#5120,#5130,
#5140,#5150,#5160,#5170,#5180,#5190,#5200),#4960);
#5220=CARTESIAN_POINT('',(-53.17,22.2678327783247,38.2000000000011));
#5230=DIRECTION('',(1.,-1.66533453693773E-16,-1.66533453693773E-16));
#5240=DIRECTION('',(1.66533453693773E-16,1.,-2.77333911991762E-32));
#5250=AXIS2_PLACEMENT_3D('',#5220,#5230,#5240);
#5260=ITEM_DEFINED_TRANSFORMATION('D-PT-2.5-MT-SELECT','',#4800,#5250);
#5270=APPLICATION_CONTEXT(' ');
#5280=APPLICATION_PROTOCOL_DEFINITION(' ','automotive_design',1998,#5270
);
#5290=PRODUCT_CONTEXT('',#5270,'mechanical');
#5300=PRODUCT_DEFINITION_CONTEXT('part definition',#5270,'design');
#5310=PRODUCT('D-PT-2.5-MT-SELECT','D-PT-2.5-MT-SELECT','',(#5290));
#5320=PRODUCT_RELATED_PRODUCT_CATEGORY('part',' ',(#5310));
#5330=PRODUCT_DEFINITION_FORMATION_WITH_SPECIFIED_SOURCE('','',#5310,
.BOUGHT.);
#5340=PRODUCT_DEFINITION('',' ',#5330,#5300);
#5350=PRODUCT_DEFINITION_SHAPE('','',#5340);
#5360=DIMENSIONAL_EXPONENTS(1.,0.,0.,0.,0.,0.,0.);
#5370=DIMENSIONAL_EXPONENTS(0.,0.,0.,0.,0.,0.,0.);
#5380=DIMENSIONAL_EXPONENTS(0.,0.,0.,0.,0.,0.,0.);
#5390=(LENGTH_UNIT() NAMED_UNIT(*) SI_UNIT(.MILLI.,.METRE.));
#5400=(NAMED_UNIT(*) PLANE_ANGLE_UNIT() SI_UNIT($,.RADIAN.));
#5410=(NAMED_UNIT(*) SI_UNIT($,.STERADIAN.) SOLID_ANGLE_UNIT());
#5420=(GEOMETRIC_REPRESENTATION_CONTEXT(3) 
GLOBAL_UNCERTAINTY_ASSIGNED_CONTEXT((#5430)) 
GLOBAL_UNIT_ASSIGNED_CONTEXT((#5390,#5400,#5410)) REPRESENTATION_CONTEXT
('',''));
#5430=UNCERTAINTY_MEASURE_WITH_UNIT(LENGTH_MEASURE(1.E-6),#5390,
'distance_accuracy_value','maximum gap value');
#5440=SHAPE_REPRESENTATION('',(#4800,#5250),#5420);
#5450=SHAPE_DEFINITION_REPRESENTATION(#5350,#5440);
#5460=(REPRESENTATION_RELATIONSHIP('','',#4980,#5440) 
REPRESENTATION_RELATIONSHIP_WITH_TRANSFORMATION(#5260) 
SHAPE_REPRESENTATION_RELATIONSHIP());
#5470=NEXT_ASSEMBLY_USAGE_OCCURRENCE('1','','D-PT-2.5-MT-SELECT',#5340,
#4880,'');
#5480=PRODUCT_DEFINITION_SHAPE('','',#5470);
#5490=CONTEXT_DEPENDENT_SHAPE_REPRESENTATION(#5460,#5480);
ENDSEC;
END-ISO-10303-21;
