ISO-10303-21;
HEADER;
FILE_DESCRIPTION(('Creo Elements/Direct Modeling STEP Export'),'2;1');
FILE_NAME(
'C:/temp/JobSpoolerServerData/JobServer Files/541abb6e-6ba1-41cd-a7dc-8b
2db8c37d2c/work/output/model.stp','2020-01-06T12:20:42',(''),(''),
'Creo Elements/Direct Modeling STEP processor for AP214 (Solid Model)',
'Creo Elements/Direct Modeling 20.1A  29-Sep-2018 (C) Parametric Technol
ogy GmbH','');
FILE_SCHEMA(('AUTOMOTIVE_DESIGN { 1 0 10303 214 1 1 1 1 }'));
ENDSEC;
DATA;
#10=CARTESIAN_POINT('',(38.0321672216756,-16.5103385634681,53.17));
#20=DIRECTION('',(1.,0.,0.));
#30=DIRECTION('',(0.,-1.,0.));
#40=AXIS2_PLACEMENT_3D('',#10,#20,#30);
#50=PLANE('',#40);
#60=CARTESIAN_POINT('',(38.0321672216756,-12.1300507694265,53.17));
#70=DIRECTION('',(0.,-1.,0.));
#80=VECTOR('',#70,1.);
#90=LINE('',#60,#80);
#100=CARTESIAN_POINT('',(38.0321672216756,-16.2402948535669,53.17));
#110=VERTEX_POINT('',#100);
#120=CARTESIAN_POINT('',(38.0321672216756,-21.2000000000027,53.17));
#130=VERTEX_POINT('',#120);
#140=EDGE_CURVE('',#110,#130,#90,.T.);
#150=ORIENTED_EDGE('',*,*,#140,.F.);
#160=CARTESIAN_POINT('',(38.0321672216756,-21.2000000000027,53.17));
#170=DIRECTION('',(0.,0.,1.));
#180=VECTOR('',#170,1.);
#190=LINE('',#160,#180);
#200=CARTESIAN_POINT('',(38.0321672216756,-21.2000000000027,55.37));
#210=VERTEX_POINT('',#200);
#220=EDGE_CURVE('',#130,#210,#190,.T.);
#230=ORIENTED_EDGE('',*,*,#220,.F.);
#240=CARTESIAN_POINT('',(38.0321672216756,-12.1300507694265,55.37));
#250=DIRECTION('',(0.,1.,0.));
#260=VECTOR('',#250,1.);
#270=LINE('',#240,#260);
#280=CARTESIAN_POINT('',(38.0321672216756,-16.2402948535674,55.37));
#290=VERTEX_POINT('',#280);
#300=EDGE_CURVE('',#210,#290,#270,.T.);
#310=ORIENTED_EDGE('',*,*,#300,.F.);
#320=CARTESIAN_POINT('',(38.0321672216756,-16.2402948535669,53.17));
#330=DIRECTION('',(0.,-2.70436056160411E-13,1.));
#340=VECTOR('',#330,1.);
#350=LINE('',#320,#340);
#360=EDGE_CURVE('',#110,#290,#350,.T.);
#370=ORIENTED_EDGE('',*,*,#360,.T.);
#380=EDGE_LOOP('',(#370,#310,#230,#150));
#390=FACE_OUTER_BOUND('',#380,.T.);
#400=ADVANCED_FACE('',(#390),#50,.T.);
#410=COLOUR_RGB('',0.560784339904785,0.588235318660736,0.600000023841858
);
#420=FILL_AREA_STYLE_COLOUR('',#410);
#430=FILL_AREA_STYLE('',(#420));
#440=SURFACE_STYLE_FILL_AREA(#430);
#450=SURFACE_SIDE_STYLE('',(#440));
#460=SURFACE_STYLE_USAGE(.BOTH.,#450);
#470=PRESENTATION_STYLE_ASSIGNMENT((#460));
#480=CARTESIAN_POINT('',(38.0321672216756,-33.2000000000027,53.17));
#490=DIRECTION('',(1.,0.,0.));
#500=DIRECTION('',(0.,-1.,0.));
#510=AXIS2_PLACEMENT_3D('',#480,#490,#500);
#520=PLANE('',#510);
#530=CARTESIAN_POINT('',(38.0321672216756,-12.1300507694265,53.17));
#540=DIRECTION('',(0.,-1.,0.));
#550=VECTOR('',#540,1.);
#560=LINE('',#530,#550);
#570=CARTESIAN_POINT('',(38.0321672216756,-33.2000000000027,53.17));
#580=VERTEX_POINT('',#570);
#590=CARTESIAN_POINT('',(38.0321672216756,-35.2466029538053,53.17));
#600=VERTEX_POINT('',#590);
#610=EDGE_CURVE('',#580,#600,#560,.T.);
#620=ORIENTED_EDGE('',*,*,#610,.F.);
#630=CARTESIAN_POINT('',(38.0321672216756,-35.2466029538053,53.17));
#640=DIRECTION('',(0.,4.10102767915847E-12,1.));
#650=VECTOR('',#640,1.);
#660=LINE('',#630,#650);
#670=CARTESIAN_POINT('',(38.0321672216756,-35.2466029537963,55.37));
#680=VERTEX_POINT('',#670);
#690=EDGE_CURVE('',#600,#680,#660,.T.);
#700=ORIENTED_EDGE('',*,*,#690,.F.);
#710=CARTESIAN_POINT('',(38.0321672216756,-12.1300507694265,55.37));
#720=DIRECTION('',(0.,1.,0.));
#730=VECTOR('',#720,1.);
#740=LINE('',#710,#730);
#750=CARTESIAN_POINT('',(38.0321672216756,-33.2000000000027,55.37));
#760=VERTEX_POINT('',#750);
#770=EDGE_CURVE('',#680,#760,#740,.T.);
#780=ORIENTED_EDGE('',*,*,#770,.F.);
#790=CARTESIAN_POINT('',(38.0321672216756,-33.2000000000027,53.17));
#800=DIRECTION('',(0.,0.,1.));
#810=VECTOR('',#800,1.);
#820=LINE('',#790,#810);
#830=EDGE_CURVE('',#580,#760,#820,.T.);
#840=ORIENTED_EDGE('',*,*,#830,.T.);
#850=EDGE_LOOP('',(#840,#780,#700,#620));
#860=FACE_OUTER_BOUND('',#850,.T.);
#870=ADVANCED_FACE('',(#860),#520,.T.);
#880=COLOUR_RGB('',0.560784339904785,0.588235318660736,0.600000023841858
);
#890=FILL_AREA_STYLE_COLOUR('',#880);
#900=FILL_AREA_STYLE('',(#890));
#910=SURFACE_STYLE_FILL_AREA(#900);
#920=SURFACE_SIDE_STYLE('',(#910));
#930=SURFACE_STYLE_USAGE(.BOTH.,#920);
#940=PRESENTATION_STYLE_ASSIGNMENT((#930));
#950=CARTESIAN_POINT('',(-0.863107931011676,-9.15000000000164,53.17));
#960=DIRECTION('',(-0.,1.,0.));
#970=DIRECTION('',(1.,0.,0.));
#980=AXIS2_PLACEMENT_3D('',#950,#960,#970);
#990=PLANE('',#980);
#1000=CARTESIAN_POINT('',(11.4461541156283,-9.15000000000164,53.17));
#1010=DIRECTION('',(1.,0.,0.));
#1020=VECTOR('',#1010,1.);
#1030=LINE('',#1000,#1020);
#1040=CARTESIAN_POINT('',(-34.4121975060632,-9.15000000000164,53.17));
#1050=VERTEX_POINT('',#1040);
#1060=CARTESIAN_POINT('',(36.7819569378105,-9.15000000000164,53.17));
#1070=VERTEX_POINT('',#1060);
#1080=EDGE_CURVE('',#1050,#1070,#1030,.T.);
#1090=ORIENTED_EDGE('',*,*,#1080,.F.);
#1100=CARTESIAN_POINT('',(36.7819569378105,-9.15000000000164,53.17));
#1110=DIRECTION('',(-4.76851732575906E-14,0.,1.));
#1120=VECTOR('',#1110,1.);
#1130=LINE('',#1100,#1120);
#1140=CARTESIAN_POINT('',(36.7819569378104,-9.15000000000164,55.37));
#1150=VERTEX_POINT('',#1140);
#1160=EDGE_CURVE('',#1070,#1150,#1130,.T.);
#1170=ORIENTED_EDGE('',*,*,#1160,.F.);
#1180=CARTESIAN_POINT('',(9.94615411562827,-9.15000000000164,55.37));
#1190=DIRECTION('',(-1.,0.,0.));
#1200=VECTOR('',#1190,1.);
#1210=LINE('',#1180,#1200);
#1220=CARTESIAN_POINT('',(-34.4121975060692,-9.15000000000164,55.37));
#1230=VERTEX_POINT('',#1220);
#1240=EDGE_CURVE('',#1150,#1230,#1210,.T.);
#1250=ORIENTED_EDGE('',*,*,#1240,.F.);
#1260=CARTESIAN_POINT('',(-34.4121975060632,-9.15000000000164,53.17));
#1270=DIRECTION('',(-2.71371894409143E-12,0.,1.));
#1280=VECTOR('',#1270,1.);
#1290=LINE('',#1260,#1280);
#1300=EDGE_CURVE('',#1050,#1230,#1290,.T.);
#1310=ORIENTED_EDGE('',*,*,#1300,.T.);
#1320=EDGE_LOOP('',(#1310,#1250,#1170,#1090));
#1330=FACE_OUTER_BOUND('',#1320,.T.);
#1340=ADVANCED_FACE('',(#1330),#990,.T.);
#1350=COLOUR_RGB('',0.560784339904785,0.588235318660736,
0.600000023841858);
#1360=FILL_AREA_STYLE_COLOUR('',#1350);
#1370=FILL_AREA_STYLE('',(#1360));
#1380=SURFACE_STYLE_FILL_AREA(#1370);
#1390=SURFACE_SIDE_STYLE('',(#1380));
#1400=SURFACE_STYLE_USAGE(.BOTH.,#1390);
#1410=PRESENTATION_STYLE_ASSIGNMENT((#1400));
#1420=CARTESIAN_POINT('',(-34.551330719297,-9.93906366279678,
48.0199999998957));
#1430=DIRECTION('',(-0.984807753012134,0.173648177667354,
-2.67249145563714E-12));
#1440=DIRECTION('',(-0.173648177667354,-0.984807753012134,
-3.9000629641062E-13));
#1450=AXIS2_PLACEMENT_3D('',#1420,#1430,#1440);
#1460=PLANE('',#1450);
#1470=CARTESIAN_POINT('',(-34.9376608605952,-12.1300507694265,53.17));
#1480=DIRECTION('',(0.173648177667354,0.984807753012134,0.));
#1490=VECTOR('',#1480,1.);
#1500=LINE('',#1470,#1490);
#1510=CARTESIAN_POINT('',(-35.6678327783247,-16.2710614916309,53.17));
#1520=VERTEX_POINT('',#1510);
#1530=EDGE_CURVE('',#1520,#1050,#1500,.T.);
#1540=ORIENTED_EDGE('',*,*,#1530,.F.);
#1550=ORIENTED_EDGE('',*,*,#1300,.F.);
#1560=CARTESIAN_POINT('',(-34.9376608606011,-12.1300507694265,55.37));
#1570=DIRECTION('',(0.173648177667354,0.984807753012134,0.));
#1580=VECTOR('',#1570,1.);
#1590=LINE('',#1560,#1580);
#1600=CARTESIAN_POINT('',(-35.6678327783247,-16.271061491597,55.37));
#1610=VERTEX_POINT('',#1600);
#1620=EDGE_CURVE('',#1610,#1230,#1590,.T.);
#1630=ORIENTED_EDGE('',*,*,#1620,.T.);
#1640=CARTESIAN_POINT('',(-35.6678327783247,-16.2710614916309,53.17));
#1650=DIRECTION('',(0.,1.53902649111392E-11,1.));
#1660=VECTOR('',#1650,1.);
#1670=LINE('',#1640,#1660);
#1680=EDGE_CURVE('',#1520,#1610,#1670,.T.);
#1690=ORIENTED_EDGE('',*,*,#1680,.T.);
#1700=EDGE_LOOP('',(#1690,#1630,#1550,#1540));
#1710=FACE_OUTER_BOUND('',#1700,.T.);
#1720=ADVANCED_FACE('',(#1710),#1460,.T.);
#1730=COLOUR_RGB('',0.560784339904785,0.588235318660736,
0.600000023841858);
#1740=FILL_AREA_STYLE_COLOUR('',#1730);
#1750=FILL_AREA_STYLE('',(#1740));
#1760=SURFACE_STYLE_FILL_AREA(#1750);
#1770=SURFACE_SIDE_STYLE('',(#1760));
#1780=SURFACE_STYLE_USAGE(.BOTH.,#1770);
#1790=PRESENTATION_STYLE_ASSIGNMENT((#1780));
#1800=CARTESIAN_POINT('',(38.0716239033959,-16.4640648152694,
53.1700000002693));
#1810=DIRECTION('',(0.984807753012133,0.173648177667356,
4.69607283278021E-14));
#1820=DIRECTION('',(0.173648177667356,-0.984807753012134,
-4.12235065829458E-13));
#1830=AXIS2_PLACEMENT_3D('',#1800,#1810,#1820);
#1840=PLANE('',#1830);
#1850=CARTESIAN_POINT('',(37.3074202923425,-12.1300507694265,53.17));
#1860=DIRECTION('',(0.173648177667356,-0.984807753012133,0.));
#1870=VECTOR('',#1860,1.);
#1880=LINE('',#1850,#1870);
#1890=EDGE_CURVE('',#1070,#110,#1880,.T.);
#1900=ORIENTED_EDGE('',*,*,#1890,.F.);
#1910=ORIENTED_EDGE('',*,*,#360,.F.);
#1920=CARTESIAN_POINT('',(37.3074202923424,-12.1300507694265,55.37));
#1930=DIRECTION('',(0.173648177667356,-0.984807753012133,0.));
#1940=VECTOR('',#1930,1.);
#1950=LINE('',#1920,#1940);
#1960=EDGE_CURVE('',#1150,#290,#1950,.T.);
#1970=ORIENTED_EDGE('',*,*,#1960,.T.);
#1980=ORIENTED_EDGE('',*,*,#1160,.T.);
#1990=EDGE_LOOP('',(#1980,#1970,#1910,#1900));
#2000=FACE_OUTER_BOUND('',#1990,.T.);
#2010=ADVANCED_FACE('',(#2000),#1840,.T.);
#2020=COLOUR_RGB('',0.560784339904785,0.588235318660736,
0.600000023841858);
#2030=FILL_AREA_STYLE_COLOUR('',#2020);
#2040=FILL_AREA_STYLE('',(#2030));
#2050=SURFACE_STYLE_FILL_AREA(#2040);
#2060=SURFACE_SIDE_STYLE('',(#2050));
#2070=SURFACE_STYLE_USAGE(.BOTH.,#2060);
#2080=PRESENTATION_STYLE_ASSIGNMENT((#2070));
#2090=CARTESIAN_POINT('',(43.5210902211858,-41.1050024000015,53.17));
#2100=DIRECTION('',(0.,0.,1.));
#2110=DIRECTION('',(-1.,0.,0.));
#2120=AXIS2_PLACEMENT_3D('',#2090,#2100,#2110);
#2130=PLANE('',#2120);
#2140=ORIENTED_EDGE('',*,*,#1530,.T.);
#2150=CARTESIAN_POINT('',(-35.6678327783247,-12.1300507694265,53.17));
#2160=DIRECTION('',(0.,1.,0.));
#2170=VECTOR('',#2160,1.);
#2180=LINE('',#2150,#2170);
#2190=CARTESIAN_POINT('',(-35.6678327783247,-21.2000000000028,53.17));
#2200=VERTEX_POINT('',#2190);
#2210=EDGE_CURVE('',#2200,#1520,#2180,.T.);
#2220=ORIENTED_EDGE('',*,*,#2210,.T.);
#2230=CARTESIAN_POINT('',(-49.9769207995789,-25.7000000000027,53.17));
#2240=DIRECTION('',(0.,0.,1.));
#2250=DIRECTION('',(1.,0.,0.));
#2260=AXIS2_PLACEMENT_3D('',#2230,#2240,#2250);
#2270=CIRCLE('',#2260,15.);
#2280=CARTESIAN_POINT('',(-35.6678327783247,-30.2000000000027,53.17));
#2290=VERTEX_POINT('',#2280);
#2300=EDGE_CURVE('',#2290,#2200,#2270,.T.);
#2310=ORIENTED_EDGE('',*,*,#2300,.T.);
#2320=CARTESIAN_POINT('',(-35.6678327783247,-12.1300507694265,53.17));
#2330=DIRECTION('',(0.,1.,0.));
#2340=VECTOR('',#2330,1.);
#2350=LINE('',#2320,#2340);
#2360=CARTESIAN_POINT('',(-35.6678327783247,-38.2000000000015,53.17));
#2370=VERTEX_POINT('',#2360);
#2380=EDGE_CURVE('',#2370,#2290,#2350,.T.);
#2390=ORIENTED_EDGE('',*,*,#2380,.T.);
#2400=CARTESIAN_POINT('',(11.4461541156283,-38.2000000000015,53.17));
#2410=DIRECTION('',(-1.,0.,0.));
#2420=VECTOR('',#2410,1.);
#2430=LINE('',#2400,#2420);
#2440=CARTESIAN_POINT('',(32.2505781451366,-38.2000000000015,53.17));
#2450=VERTEX_POINT('',#2440);
#2460=EDGE_CURVE('',#2450,#2370,#2430,.T.);
#2470=ORIENTED_EDGE('',*,*,#2460,.T.);
#2480=CARTESIAN_POINT('',(11.4461541156283,-48.8274803800746,53.17));
#2490=DIRECTION('',(-0.890536864509899,-0.454911082464339,0.));
#2500=VECTOR('',#2490,1.);
#2510=LINE('',#2480,#2500);
#2520=EDGE_CURVE('',#600,#2450,#2510,.T.);
#2530=ORIENTED_EDGE('',*,*,#2520,.T.);
#2540=ORIENTED_EDGE('',*,*,#610,.T.);
#2550=CARTESIAN_POINT('',(51.7798943065431,-27.2000000000027,53.17));
#2560=DIRECTION('',(0.,0.,1.));
#2570=DIRECTION('',(1.,0.,0.));
#2580=AXIS2_PLACEMENT_3D('',#2550,#2560,#2570);
#2590=CIRCLE('',#2580,15.);
#2600=EDGE_CURVE('',#130,#580,#2590,.T.);
#2610=ORIENTED_EDGE('',*,*,#2600,.T.);
#2620=ORIENTED_EDGE('',*,*,#140,.T.);
#2630=ORIENTED_EDGE('',*,*,#1890,.T.);
#2640=ORIENTED_EDGE('',*,*,#1080,.T.);
#2650=EDGE_LOOP('',(#2640,#2630,#2620,#2610,#2540,#2530,#2470,#2390,
#2310,#2220,#2140));
#2660=FACE_OUTER_BOUND('',#2650,.T.);
#2670=ADVANCED_FACE('',(#2660),#2130,.F.);
#2680=COLOUR_RGB('',0.560784339904785,0.588235318660736,
0.600000023841858);
#2690=FILL_AREA_STYLE_COLOUR('',#2680);
#2700=FILL_AREA_STYLE('',(#2690));
#2710=SURFACE_STYLE_FILL_AREA(#2700);
#2720=SURFACE_SIDE_STYLE('',(#2710));
#2730=SURFACE_STYLE_USAGE(.BOTH.,#2720);
#2740=PRESENTATION_STYLE_ASSIGNMENT((#2730));
#2750=CARTESIAN_POINT('',(35.840579,-37.08196,55.37));
#2760=DIRECTION('',(0.,0.,-1.));
#2770=DIRECTION('',(-1.,0.,0.));
#2780=AXIS2_PLACEMENT_3D('',#2750,#2760,#2770);
#2790=PLANE('',#2780);
#2800=CARTESIAN_POINT('',(-35.6678327783247,-12.1300507694265,55.37));
#2810=DIRECTION('',(0.,-1.,0.));
#2820=VECTOR('',#2810,1.);
#2830=LINE('',#2800,#2820);
#2840=CARTESIAN_POINT('',(-35.6678327783247,-30.2000000000027,55.37));
#2850=VERTEX_POINT('',#2840);
#2860=CARTESIAN_POINT('',(-35.6678327783247,-38.2000000000015,55.37));
#2870=VERTEX_POINT('',#2860);
#2880=EDGE_CURVE('',#2850,#2870,#2830,.T.);
#2890=ORIENTED_EDGE('',*,*,#2880,.T.);
#2900=CARTESIAN_POINT('',(-49.9769207995789,-25.7000000000027,55.37));
#2910=DIRECTION('',(0.,0.,1.));
#2920=DIRECTION('',(1.,0.,0.));
#2930=AXIS2_PLACEMENT_3D('',#2900,#2910,#2920);
#2940=CIRCLE('',#2930,15.);
#2950=CARTESIAN_POINT('',(-35.6678327783247,-21.2000000000028,55.37));
#2960=VERTEX_POINT('',#2950);
#2970=EDGE_CURVE('',#2850,#2960,#2940,.T.);
#2980=ORIENTED_EDGE('',*,*,#2970,.F.);
#2990=CARTESIAN_POINT('',(-35.6678327783247,-12.1300507694265,55.37));
#3000=DIRECTION('',(0.,-1.,0.));
#3010=VECTOR('',#3000,1.);
#3020=LINE('',#2990,#3010);
#3030=EDGE_CURVE('',#1610,#2960,#3020,.T.);
#3040=ORIENTED_EDGE('',*,*,#3030,.T.);
#3050=ORIENTED_EDGE('',*,*,#1620,.F.);
#3060=ORIENTED_EDGE('',*,*,#1240,.T.);
#3070=ORIENTED_EDGE('',*,*,#1960,.F.);
#3080=ORIENTED_EDGE('',*,*,#300,.T.);
#3090=CARTESIAN_POINT('',(51.7798943065431,-27.2000000000027,55.37));
#3100=DIRECTION('',(0.,0.,1.));
#3110=DIRECTION('',(1.,0.,0.));
#3120=AXIS2_PLACEMENT_3D('',#3090,#3100,#3110);
#3130=CIRCLE('',#3120,15.);
#3140=EDGE_CURVE('',#210,#760,#3130,.T.);
#3150=ORIENTED_EDGE('',*,*,#3140,.F.);
#3160=ORIENTED_EDGE('',*,*,#770,.T.);
#3170=CARTESIAN_POINT('',(11.4461541156283,-48.8274803800655,55.37));
#3180=DIRECTION('',(0.890536864509899,0.454911082464339,0.));
#3190=VECTOR('',#3180,1.);
#3200=LINE('',#3170,#3190);
#3210=CARTESIAN_POINT('',(32.2505781451189,-38.2000000000015,55.37));
#3220=VERTEX_POINT('',#3210);
#3230=EDGE_CURVE('',#3220,#680,#3200,.T.);
#3240=ORIENTED_EDGE('',*,*,#3230,.T.);
#3250=CARTESIAN_POINT('',(11.4461541156283,-38.2000000000015,55.37));
#3260=DIRECTION('',(1.,0.,0.));
#3270=VECTOR('',#3260,1.);
#3280=LINE('',#3250,#3270);
#3290=EDGE_CURVE('',#2870,#3220,#3280,.T.);
#3300=ORIENTED_EDGE('',*,*,#3290,.T.);
#3310=EDGE_LOOP('',(#3300,#3240,#3160,#3150,#3080,#3070,#3060,#3050,
#3040,#2980,#2890));
#3320=FACE_OUTER_BOUND('',#3310,.T.);
#3330=ADVANCED_FACE('',(#3320),#2790,.F.);
#3340=COLOUR_RGB('',0.560784339904785,0.588235318660736,
0.600000023841858);
#3350=FILL_AREA_STYLE_COLOUR('',#3340);
#3360=FILL_AREA_STYLE('',(#3350));
#3370=SURFACE_STYLE_FILL_AREA(#3360);
#3380=SURFACE_SIDE_STYLE('',(#3370));
#3390=SURFACE_STYLE_USAGE(.BOTH.,#3380);
#3400=PRESENTATION_STYLE_ASSIGNMENT((#3390));
#3410=CARTESIAN_POINT('',(-35.6678327783247,-21.2000000000028,53.17));
#3420=DIRECTION('',(-1.,0.,0.));
#3430=DIRECTION('',(0.,1.,0.));
#3440=AXIS2_PLACEMENT_3D('',#3410,#3420,#3430);
#3450=PLANE('',#3440);
#3460=ORIENTED_EDGE('',*,*,#2210,.F.);
#3470=ORIENTED_EDGE('',*,*,#1680,.F.);
#3480=ORIENTED_EDGE('',*,*,#3030,.F.);
#3490=CARTESIAN_POINT('',(-35.6678327783247,-21.2000000000028,53.17));
#3500=DIRECTION('',(0.,0.,1.));
#3510=VECTOR('',#3500,1.);
#3520=LINE('',#3490,#3510);
#3530=EDGE_CURVE('',#2200,#2960,#3520,.T.);
#3540=ORIENTED_EDGE('',*,*,#3530,.T.);
#3550=EDGE_LOOP('',(#3540,#3480,#3470,#3460));
#3560=FACE_OUTER_BOUND('',#3550,.T.);
#3570=ADVANCED_FACE('',(#3560),#3450,.T.);
#3580=COLOUR_RGB('',0.560784339904785,0.588235318660736,
0.600000023841858);
#3590=FILL_AREA_STYLE_COLOUR('',#3580);
#3600=FILL_AREA_STYLE('',(#3590));
#3610=SURFACE_STYLE_FILL_AREA(#3600);
#3620=SURFACE_SIDE_STYLE('',(#3610));
#3630=SURFACE_STYLE_USAGE(.BOTH.,#3620);
#3640=PRESENTATION_STYLE_ASSIGNMENT((#3630));
#3650=CARTESIAN_POINT('',(31.078459389798,-38.2000000000015,53.17));
#3660=DIRECTION('',(-0.,-1.,-0.));
#3670=DIRECTION('',(-1.,0.,0.));
#3680=AXIS2_PLACEMENT_3D('',#3650,#3660,#3670);
#3690=PLANE('',#3680);
#3700=ORIENTED_EDGE('',*,*,#2460,.F.);
#3710=CARTESIAN_POINT('',(-35.6678327783247,-38.2000000000015,53.17));
#3720=DIRECTION('',(0.,0.,1.));
#3730=VECTOR('',#3720,1.);
#3740=LINE('',#3710,#3730);
#3750=EDGE_CURVE('',#2370,#2870,#3740,.T.);
#3760=ORIENTED_EDGE('',*,*,#3750,.F.);
#3770=ORIENTED_EDGE('',*,*,#3290,.F.);
#3780=CARTESIAN_POINT('',(32.2505781451366,-38.2000000000015,53.17));
#3790=DIRECTION('',(8.02819819398968E-12,0.,-1.));
#3800=VECTOR('',#3790,1.);
#3810=LINE('',#3780,#3800);
#3820=EDGE_CURVE('',#3220,#2450,#3810,.T.);
#3830=ORIENTED_EDGE('',*,*,#3820,.F.);
#3840=EDGE_LOOP('',(#3830,#3770,#3760,#3700));
#3850=FACE_OUTER_BOUND('',#3840,.T.);
#3860=ADVANCED_FACE('',(#3850),#3690,.T.);
#3870=COLOUR_RGB('',0.560784339904785,0.588235318660736,
0.600000023841858);
#3880=FILL_AREA_STYLE_COLOUR('',#3870);
#3890=FILL_AREA_STYLE('',(#3880));
#3900=SURFACE_STYLE_FILL_AREA(#3890);
#3910=SURFACE_SIDE_STYLE('',(#3900));
#3920=SURFACE_STYLE_USAGE(.BOTH.,#3910);
#3930=PRESENTATION_STYLE_ASSIGNMENT((#3920));
#3940=CARTESIAN_POINT('',(51.7798943065431,-27.2000000000027,53.17));
#3950=DIRECTION('',(0.,0.,1.));
#3960=DIRECTION('',(1.,0.,0.));
#3970=AXIS2_PLACEMENT_3D('',#3940,#3950,#3960);
#3980=CYLINDRICAL_SURFACE('',#3970,15.);
#3990=ORIENTED_EDGE('',*,*,#2600,.F.);
#4000=ORIENTED_EDGE('',*,*,#830,.F.);
#4010=ORIENTED_EDGE('',*,*,#3140,.T.);
#4020=ORIENTED_EDGE('',*,*,#220,.T.);
#4030=EDGE_LOOP('',(#4020,#4010,#4000,#3990));
#4040=FACE_OUTER_BOUND('',#4030,.T.);
#4050=ADVANCED_FACE('',(#4040),#3980,.F.);
#4060=COLOUR_RGB('',0.560784339904785,0.588235318660736,
0.600000023841858);
#4070=FILL_AREA_STYLE_COLOUR('',#4060);
#4080=FILL_AREA_STYLE('',(#4070));
#4090=SURFACE_STYLE_FILL_AREA(#4080);
#4100=SURFACE_SIDE_STYLE('',(#4090));
#4110=SURFACE_STYLE_USAGE(.BOTH.,#4100);
#4120=PRESENTATION_STYLE_ASSIGNMENT((#4110));
#4130=CARTESIAN_POINT('',(-49.9769207995789,-25.7000000000027,53.17));
#4140=DIRECTION('',(0.,0.,1.));
#4150=DIRECTION('',(1.,0.,0.));
#4160=AXIS2_PLACEMENT_3D('',#4130,#4140,#4150);
#4170=CYLINDRICAL_SURFACE('',#4160,15.);
#4180=ORIENTED_EDGE('',*,*,#2300,.F.);
#4190=ORIENTED_EDGE('',*,*,#3530,.F.);
#4200=ORIENTED_EDGE('',*,*,#2970,.T.);
#4210=CARTESIAN_POINT('',(-35.6678327783247,-30.2000000000027,53.17));
#4220=DIRECTION('',(0.,0.,1.));
#4230=VECTOR('',#4220,1.);
#4240=LINE('',#4210,#4230);
#4250=EDGE_CURVE('',#2290,#2850,#4240,.T.);
#4260=ORIENTED_EDGE('',*,*,#4250,.T.);
#4270=EDGE_LOOP('',(#4260,#4200,#4190,#4180));
#4280=FACE_OUTER_BOUND('',#4270,.T.);
#4290=ADVANCED_FACE('',(#4280),#4170,.F.);
#4300=COLOUR_RGB('',0.560784339904785,0.588235318660736,
0.600000023841858);
#4310=FILL_AREA_STYLE_COLOUR('',#4300);
#4320=FILL_AREA_STYLE('',(#4310));
#4330=SURFACE_STYLE_FILL_AREA(#4320);
#4340=SURFACE_SIDE_STYLE('',(#4330));
#4350=SURFACE_STYLE_USAGE(.BOTH.,#4340);
#4360=PRESENTATION_STYLE_ASSIGNMENT((#4350));
#4370=CARTESIAN_POINT('',(20.5419896961743,-44.1810737294672,
54.7925015522607));
#4380=DIRECTION('',(-0.454911082464339,0.890536864509899,
-3.6521163306661E-12));
#4390=DIRECTION('',(0.8905368645099,0.45491108246434,
7.31859338256012E-12));
#4400=AXIS2_PLACEMENT_3D('',#4370,#4380,#4390);
#4410=PLANE('',#4400);
#4420=ORIENTED_EDGE('',*,*,#2520,.F.);
#4430=ORIENTED_EDGE('',*,*,#3820,.T.);
#4440=ORIENTED_EDGE('',*,*,#3230,.F.);
#4450=ORIENTED_EDGE('',*,*,#690,.T.);
#4460=EDGE_LOOP('',(#4450,#4440,#4430,#4420));
#4470=FACE_OUTER_BOUND('',#4460,.T.);
#4480=ADVANCED_FACE('',(#4470),#4410,.F.);
#4490=COLOUR_RGB('',0.560784339904785,0.588235318660736,
0.600000023841858);
#4500=FILL_AREA_STYLE_COLOUR('',#4490);
#4510=FILL_AREA_STYLE('',(#4500));
#4520=SURFACE_STYLE_FILL_AREA(#4510);
#4530=SURFACE_SIDE_STYLE('',(#4520));
#4540=SURFACE_STYLE_USAGE(.BOTH.,#4530);
#4550=PRESENTATION_STYLE_ASSIGNMENT((#4540));
#4560=CARTESIAN_POINT('',(-35.6678327783247,-38.2000000000015,53.17));
#4570=DIRECTION('',(-1.,0.,0.));
#4580=DIRECTION('',(0.,1.,0.));
#4590=AXIS2_PLACEMENT_3D('',#4560,#4570,#4580);
#4600=PLANE('',#4590);
#4610=ORIENTED_EDGE('',*,*,#3750,.T.);
#4620=ORIENTED_EDGE('',*,*,#2380,.F.);
#4630=ORIENTED_EDGE('',*,*,#4250,.F.);
#4640=ORIENTED_EDGE('',*,*,#2880,.F.);
#4650=EDGE_LOOP('',(#4640,#4630,#4620,#4610));
#4660=FACE_OUTER_BOUND('',#4650,.T.);
#4670=ADVANCED_FACE('',(#4660),#4600,.T.);
#4680=COLOUR_RGB('',0.560784339904785,0.588235318660736,
0.600000023841858);
#4690=FILL_AREA_STYLE_COLOUR('',#4680);
#4700=FILL_AREA_STYLE('',(#4690));
#4710=SURFACE_STYLE_FILL_AREA(#4700);
#4720=SURFACE_SIDE_STYLE('',(#4710));
#4730=SURFACE_STYLE_USAGE(.BOTH.,#4720);
#4740=PRESENTATION_STYLE_ASSIGNMENT((#4730));
#4750=CLOSED_SHELL('',(#400,#870,#1340,#1720,#2010,#2670,#3330,#3570,
#3860,#4050,#4290,#4480,#4670));
#4760=MANIFOLD_SOLID_BREP('',#4750);
#4770=CARTESIAN_POINT('',(0.,0.,0.));
#4780=DIRECTION('',(0.,0.,1.));
#4790=DIRECTION('',(1.,0.,0.));
#4800=AXIS2_PLACEMENT_3D('',#4770,#4780,#4790);
#4810=APPLICATION_CONTEXT(' ');
#4820=APPLICATION_PROTOCOL_DEFINITION(' ','automotive_design',1998,#4810
);
#4830=PRODUCT_CONTEXT('',#4810,'mechanical');
#4840=PRODUCT_DEFINITION_CONTEXT('part definition',#4810,'design');
#4850=PRODUCT('D-PT_2.5-TWIN-MT-select','D-PT_2.5-TWIN-MT-select','',(
#4830));
#4860=PRODUCT_RELATED_PRODUCT_CATEGORY('part',' ',(#4850));
#4870=PRODUCT_DEFINITION_FORMATION_WITH_SPECIFIED_SOURCE('','',#4850,
.BOUGHT.);
#4880=PRODUCT_DEFINITION('',' ',#4870,#4840);
#4890=PRODUCT_DEFINITION_SHAPE('','',#4880);
#4900=DIMENSIONAL_EXPONENTS(1.,0.,0.,0.,0.,0.,0.);
#4910=DIMENSIONAL_EXPONENTS(0.,0.,0.,0.,0.,0.,0.);
#4920=DIMENSIONAL_EXPONENTS(0.,0.,0.,0.,0.,0.,0.);
#4930=(LENGTH_UNIT() NAMED_UNIT(*) SI_UNIT(.MILLI.,.METRE.));
#4940=(NAMED_UNIT(*) PLANE_ANGLE_UNIT() SI_UNIT($,.RADIAN.));
#4950=(NAMED_UNIT(*) SI_UNIT($,.STERADIAN.) SOLID_ANGLE_UNIT());
#4960=(GEOMETRIC_REPRESENTATION_CONTEXT(3) 
GLOBAL_UNCERTAINTY_ASSIGNED_CONTEXT((#4970)) 
GLOBAL_UNIT_ASSIGNED_CONTEXT((#4930,#4940,#4950)) REPRESENTATION_CONTEXT
('',''));
#4970=UNCERTAINTY_MEASURE_WITH_UNIT(LENGTH_MEASURE(1.E-6),#4930,
'distance_accuracy_value','maximum gap value');
#4980=ADVANCED_BREP_SHAPE_REPRESENTATION('',(#4800,#4760),#4960);
#4990=SHAPE_DEFINITION_REPRESENTATION(#4890,#4980);
#5000=COLOUR_RGB('',0.560784339904785,0.588235318660736,
0.600000023841858);
#5010=FILL_AREA_STYLE_COLOUR('',#5000);
#5020=FILL_AREA_STYLE('',(#5010));
#5030=SURFACE_STYLE_FILL_AREA(#5020);
#5040=SURFACE_SIDE_STYLE('',(#5030));
#5050=SURFACE_STYLE_USAGE(.BOTH.,#5040);
#5060=PRESENTATION_STYLE_ASSIGNMENT((#5050));
#5070=STYLED_ITEM('',(#5060),#4760);
#5080=OVER_RIDING_STYLED_ITEM('',(#470),#400,#5070);
#5090=OVER_RIDING_STYLED_ITEM('',(#940),#870,#5070);
#5100=OVER_RIDING_STYLED_ITEM('',(#1410),#1340,#5070);
#5110=OVER_RIDING_STYLED_ITEM('',(#1790),#1720,#5070);
#5120=OVER_RIDING_STYLED_ITEM('',(#2080),#2010,#5070);
#5130=OVER_RIDING_STYLED_ITEM('',(#2740),#2670,#5070);
#5140=OVER_RIDING_STYLED_ITEM('',(#3400),#3330,#5070);
#5150=OVER_RIDING_STYLED_ITEM('',(#3640),#3570,#5070);
#5160=OVER_RIDING_STYLED_ITEM('',(#3930),#3860,#5070);
#5170=OVER_RIDING_STYLED_ITEM('',(#4120),#4050,#5070);
#5180=OVER_RIDING_STYLED_ITEM('',(#4360),#4290,#5070);
#5190=OVER_RIDING_STYLED_ITEM('',(#4550),#4480,#5070);
#5200=OVER_RIDING_STYLED_ITEM('',(#4740),#4670,#5070);
#5210=DRAUGHTING_MODEL('',(#5070,#5080,#5090,#5100,#5110,#5120,#5130,
#5140,#5150,#5160,#5170,#5180,#5190,#5200),#4960);
#5220=CARTESIAN_POINT('',(-53.17,35.6678327784187,38.2000000000408));
#5230=DIRECTION('',(1.,-6.93334779979404E-33,-8.32667268468867E-17));
#5240=DIRECTION('',(0.,1.,-8.32667268468867E-17));
#5250=AXIS2_PLACEMENT_3D('',#5220,#5230,#5240);
#5260=ITEM_DEFINED_TRANSFORMATION('D-PT_2.5-TWIN-MT-select','',#4800,
#5250);
#5270=APPLICATION_CONTEXT(' ');
#5280=APPLICATION_PROTOCOL_DEFINITION(' ','automotive_design',1998,#5270
);
#5290=PRODUCT_CONTEXT('',#5270,'mechanical');
#5300=PRODUCT_DEFINITION_CONTEXT('part definition',#5270,'design');
#5310=PRODUCT('D-PT_2.5-TWIN-MT-select','D-PT_2.5-TWIN-MT-select','',(
#5290));
#5320=PRODUCT_RELATED_PRODUCT_CATEGORY('part',' ',(#5310));
#5330=PRODUCT_DEFINITION_FORMATION_WITH_SPECIFIED_SOURCE('','',#5310,
.BOUGHT.);
#5340=PRODUCT_DEFINITION('',' ',#5330,#5300);
#5350=PRODUCT_DEFINITION_SHAPE('','',#5340);
#5360=DIMENSIONAL_EXPONENTS(1.,0.,0.,0.,0.,0.,0.);
#5370=DIMENSIONAL_EXPONENTS(0.,0.,0.,0.,0.,0.,0.);
#5380=DIMENSIONAL_EXPONENTS(0.,0.,0.,0.,0.,0.,0.);
#5390=(LENGTH_UNIT() NAMED_UNIT(*) SI_UNIT(.MILLI.,.METRE.));
#5400=(NAMED_UNIT(*) PLANE_ANGLE_UNIT() SI_UNIT($,.RADIAN.));
#5410=(NAMED_UNIT(*) SI_UNIT($,.STERADIAN.) SOLID_ANGLE_UNIT());
#5420=(GEOMETRIC_REPRESENTATION_CONTEXT(3) 
GLOBAL_UNCERTAINTY_ASSIGNED_CONTEXT((#5430)) 
GLOBAL_UNIT_ASSIGNED_CONTEXT((#5390,#5400,#5410)) REPRESENTATION_CONTEXT
('',''));
#5430=UNCERTAINTY_MEASURE_WITH_UNIT(LENGTH_MEASURE(1.E-6),#5390,
'distance_accuracy_value','maximum gap value');
#5440=SHAPE_REPRESENTATION('',(#4800,#5250),#5420);
#5450=SHAPE_DEFINITION_REPRESENTATION(#5350,#5440);
#5460=(REPRESENTATION_RELATIONSHIP('','',#4980,#5440) 
REPRESENTATION_RELATIONSHIP_WITH_TRANSFORMATION(#5260) 
SHAPE_REPRESENTATION_RELATIONSHIP());
#5470=NEXT_ASSEMBLY_USAGE_OCCURRENCE('1','','D-PT_2.5-TWIN-MT-select',
#5340,#4880,'');
#5480=PRODUCT_DEFINITION_SHAPE('','',#5470);
#5490=CONTEXT_DEPENDENT_SHAPE_REPRESENTATION(#5460,#5480);
ENDSEC;
END-ISO-10303-21;
