ISO-10303-21;
HEADER;
FILE_DESCRIPTION(('Creo Elements/Direct Modeling STEP Export'),'2;1');
FILE_NAME(
'D:/temp/JobSpoolerServerData/JobServer Files/a1c20b31-0c5c-43a5-afba-74
92dbd2fcb7/work/output/model.stp','2018-04-12T 7:47:19',(''),(''),
'Creo Elements/Direct Modeling STEP processor for AP214 (Solid Model)',
'Creo Elements/Direct Modeling 18.1I  14-Aug-2016 (C) Parametric Technol
ogy GmbH','');
FILE_SCHEMA(('AUTOMOTIVE_DESIGN { 1 0 10303 214 1 1 1 1 }'));
ENDSEC;
DATA;
#10=CARTESIAN_POINT('',(-42.4428327847451,-38.199999999994,
53.6700000000045));
#20=DIRECTION('',(-1.,0.,0.));
#30=DIRECTION('',(0.,1.,0.));
#40=AXIS2_PLACEMENT_3D('',#10,#20,#30);
#50=PLANE('',#40);
#60=CARTESIAN_POINT('',(-42.4428327847451,-22.363129,55.8700000000002));
#70=DIRECTION('',(-1.61716485570307E-28,-1.,-1.05655906439346E-14));
#80=VECTOR('',#70,1.);
#90=LINE('',#60,#80);
#100=CARTESIAN_POINT('',(-42.4428327847451,-30.1999996077338,
55.8699999999997));
#110=VERTEX_POINT('',#100);
#120=CARTESIAN_POINT('',(-42.4428327847451,-38.2000000000014,
55.8700000000045));
#130=VERTEX_POINT('',#120);
#140=EDGE_CURVE('',#110,#130,#90,.T.);
#150=ORIENTED_EDGE('',*,*,#140,.F.);
#160=CARTESIAN_POINT('',(-42.4428327847451,-38.2000000000014,53.67));
#170=DIRECTION('',(0.,0.,1.));
#180=VECTOR('',#170,1.);
#190=LINE('',#160,#180);
#200=CARTESIAN_POINT('',(-42.4428327847451,-38.2000000000014,
53.6700000002689));
#210=VERTEX_POINT('',#200);
#220=EDGE_CURVE('',#210,#130,#190,.T.);
#230=ORIENTED_EDGE('',*,*,#220,.T.);
#240=CARTESIAN_POINT('',(-42.4428327847451,-22.363129,53.6700000002691))
;
#250=DIRECTION('',(1.61716485570307E-28,1.,1.05655906439346E-14));
#260=VECTOR('',#250,1.);
#270=LINE('',#240,#260);
#280=CARTESIAN_POINT('',(-42.4428327847451,-30.1999996077338,
53.670000000269));
#290=VERTEX_POINT('',#280);
#300=EDGE_CURVE('',#210,#290,#270,.T.);
#310=ORIENTED_EDGE('',*,*,#300,.F.);
#320=CARTESIAN_POINT('',(-42.4428327847451,-30.1999996077338,
53.6700000000045));
#330=DIRECTION('',(0.,0.,1.));
#340=VECTOR('',#330,1.);
#350=LINE('',#320,#340);
#360=EDGE_CURVE('',#290,#110,#350,.T.);
#370=ORIENTED_EDGE('',*,*,#360,.F.);
#380=EDGE_LOOP('',(#370,#310,#230,#150));
#390=FACE_OUTER_BOUND('',#380,.T.);
#400=ADVANCED_FACE('',(#390),#50,.T.);
#410=COLOUR_RGB('',0.560784339904785,0.588235318660736,0.600000023841858
);
#420=FILL_AREA_STYLE_COLOUR('',#410);
#430=FILL_AREA_STYLE('',(#420));
#440=SURFACE_STYLE_FILL_AREA(#430);
#450=SURFACE_SIDE_STYLE('',(#440));
#460=SURFACE_STYLE_USAGE(.BOTH.,#450);
#470=PRESENTATION_STYLE_ASSIGNMENT((#460));
#480=CARTESIAN_POINT('',(31.6821672216756,-35.1999999941736,
53.6699999965196));
#490=DIRECTION('',(0.348545836923375,-0.937291736634536,
-6.97349787257112E-11));
#500=DIRECTION('',(-0.937291736634536,-0.348545836923375,
1.87527757804217E-10));
#510=AXIS2_PLACEMENT_3D('',#480,#490,#500);
#520=PLANE('',#510);
#530=CARTESIAN_POINT('',(23.6147197944261,-38.2000000000014,53.67));
#540=DIRECTION('',(2.00074054366174E-10,0.,1.));
#550=VECTOR('',#540,1.);
#560=LINE('',#530,#550);
#570=CARTESIAN_POINT('',(23.6147197944261,-38.2000000000014,
53.6700000002679));
#580=VERTEX_POINT('',#570);
#590=CARTESIAN_POINT('',(23.6147197948663,-38.2000000000014,
55.8699999999997));
#600=VERTEX_POINT('',#590);
#610=EDGE_CURVE('',#580,#600,#560,.T.);
#620=ORIENTED_EDGE('',*,*,#610,.F.);
#630=CARTESIAN_POINT('',(31.631009,-35.2190239379959,55.869999999999));
#640=DIRECTION('',(0.937291736634536,0.348545836923375,
-1.06303854607859E-14));
#650=VECTOR('',#640,1.);
#660=LINE('',#630,#650);
#670=CARTESIAN_POINT('',(31.6821672216756,-35.1999999943373,
55.8699999999994));
#680=VERTEX_POINT('',#670);
#690=EDGE_CURVE('',#600,#680,#660,.T.);
#700=ORIENTED_EDGE('',*,*,#690,.F.);
#710=CARTESIAN_POINT('',(31.6821672216756,-35.1999999941736,53.67));
#720=DIRECTION('',(0.,7.44005052003376E-11,-1.));
#730=VECTOR('',#720,1.);
#740=LINE('',#710,#730);
#750=CARTESIAN_POINT('',(31.6821672216756,-35.1999999941736,
53.6700000002678));
#760=VERTEX_POINT('',#750);
#770=EDGE_CURVE('',#680,#760,#740,.T.);
#780=ORIENTED_EDGE('',*,*,#770,.F.);
#790=CARTESIAN_POINT('',(31.631009,-35.2190239379958,53.6700000002678));
#800=DIRECTION('',(-0.937291736634536,-0.348545836923375,
1.06303854607859E-14));
#810=VECTOR('',#800,1.);
#820=LINE('',#790,#810);
#830=EDGE_CURVE('',#760,#580,#820,.T.);
#840=ORIENTED_EDGE('',*,*,#830,.F.);
#850=EDGE_LOOP('',(#840,#780,#700,#620));
#860=FACE_OUTER_BOUND('',#850,.T.);
#870=ADVANCED_FACE('',(#860),#520,.T.);
#880=COLOUR_RGB('',0.560784339904785,0.588235318660736,0.600000023841858
);
#890=FILL_AREA_STYLE_COLOUR('',#880);
#900=FILL_AREA_STYLE('',(#890));
#910=SURFACE_STYLE_FILL_AREA(#900);
#920=SURFACE_SIDE_STYLE('',(#910));
#930=SURFACE_STYLE_USAGE(.BOTH.,#920);
#940=PRESENTATION_STYLE_ASSIGNMENT((#930));
#950=CARTESIAN_POINT('',(11.2481772508386,-3.97050078915333,
53.6700000002684));
#960=DIRECTION('',(-1.52474024617862E-14,1.05655906439346E-14,-1.));
#970=DIRECTION('',(-1.,-9.43689570931485E-16,1.52474024617862E-14));
#980=AXIS2_PLACEMENT_3D('',#950,#960,#970);
#990=PLANE('',#980);
#1000=CARTESIAN_POINT('',(-44.7415329994041,-22.363129,53.6700000002691)
);
#1010=DIRECTION('',(0.173648177667275,0.984807753012147,
7.7715611723761E-15));
#1020=VECTOR('',#1010,1.);
#1030=LINE('',#1000,#1020);
#1040=CARTESIAN_POINT('',(-42.4428327847451,-9.3265522639052,
53.6700000002692));
#1050=VERTEX_POINT('',#1040);
#1060=CARTESIAN_POINT('',(-41.1862293411869,-2.19999999999897,
53.6700000002693));
#1070=VERTEX_POINT('',#1060);
#1080=EDGE_CURVE('',#1050,#1070,#1030,.T.);
#1090=ORIENTED_EDGE('',*,*,#1080,.T.);
#1100=CARTESIAN_POINT('',(-42.4428327847451,-22.363129,53.6700000002691)
);
#1110=DIRECTION('',(1.61716485570307E-28,1.,1.05655906439346E-14));
#1120=VECTOR('',#1110,1.);
#1130=LINE('',#1100,#1120);
#1140=CARTESIAN_POINT('',(-42.4428327847451,-17.2000004103797,
53.6700000002691));
#1150=VERTEX_POINT('',#1140);
#1160=EDGE_CURVE('',#1150,#1050,#1130,.T.);
#1170=ORIENTED_EDGE('',*,*,#1160,.T.);
#1180=CARTESIAN_POINT('',(-55.961338812306,-23.7000000090567,
53.6700000002693));
#1190=DIRECTION('',(1.52474024617862E-14,-1.05655906439346E-14,1.));
#1200=DIRECTION('',(1.,8.02136135291677E-14,-1.52474024617853E-14));
#1210=AXIS2_PLACEMENT_3D('',#1180,#1190,#1200);
#1220=CIRCLE('',#1210,15.);
#1230=EDGE_CURVE('',#290,#1150,#1220,.T.);
#1240=ORIENTED_EDGE('',*,*,#1230,.T.);
#1250=ORIENTED_EDGE('',*,*,#300,.T.);
#1260=CARTESIAN_POINT('',(31.631009,-38.2000000000014,53.6700000002678))
;
#1270=DIRECTION('',(-1.,-1.62505346475528E-28,1.52474024617862E-14));
#1280=VECTOR('',#1270,1.);
#1290=LINE('',#1260,#1280);
#1300=EDGE_CURVE('',#580,#210,#1290,.T.);
#1310=ORIENTED_EDGE('',*,*,#1300,.T.);
#1320=ORIENTED_EDGE('',*,*,#830,.T.);
#1330=CARTESIAN_POINT('',(31.6821672216755,-22.363129,53.6700000002679))
;
#1340=DIRECTION('',(-1.61716485570307E-28,-1.,-1.05655906439346E-14));
#1350=VECTOR('',#1340,1.);
#1360=LINE('',#1330,#1350);
#1370=CARTESIAN_POINT('',(31.6821672216755,-33.1999999933289,
53.6700000002676));
#1380=VERTEX_POINT('',#1370);
#1390=EDGE_CURVE('',#1380,#760,#1360,.T.);
#1400=ORIENTED_EDGE('',*,*,#1390,.T.);
#1410=CARTESIAN_POINT('',(51.0986550670313,-25.200000008882,
53.6700000002676));
#1420=DIRECTION('',(1.52474024617862E-14,-1.05655906439346E-14,1.));
#1430=DIRECTION('',(1.,1.61097812794554E-28,-1.52474024617862E-14));
#1440=AXIS2_PLACEMENT_3D('',#1410,#1420,#1430);
#1450=CIRCLE('',#1440,21.);
#1460=CARTESIAN_POINT('',(31.6821672216756,-17.2000000244351,
53.6700000002676));
#1470=VERTEX_POINT('',#1460);
#1480=EDGE_CURVE('',#1470,#1380,#1450,.T.);
#1490=ORIENTED_EDGE('',*,*,#1480,.T.);
#1500=CARTESIAN_POINT('',(31.6821672216755,-22.363129,53.6700000002679))
;
#1510=DIRECTION('',(-7.88860905221012E-31,-1.,-1.05655906439346E-14));
#1520=VECTOR('',#1510,1.);
#1530=LINE('',#1500,#1520);
#1540=CARTESIAN_POINT('',(31.6821672216756,-9.32655332142023,
53.6700000002681));
#1550=VERTEX_POINT('',#1540);
#1560=EDGE_CURVE('',#1550,#1470,#1530,.T.);
#1570=ORIENTED_EDGE('',*,*,#1560,.T.);
#1580=CARTESIAN_POINT('',(33.9808672499115,-22.363129,53.6700000002679))
;
#1590=DIRECTION('',(0.173648177670928,-0.984807753011503,
-1.30451205393456E-14));
#1600=VECTOR('',#1590,1.);
#1610=LINE('',#1580,#1600);
#1620=CARTESIAN_POINT('',(30.4255635916216,-2.19999999999897,
53.6700000002682));
#1630=VERTEX_POINT('',#1620);
#1640=EDGE_CURVE('',#1630,#1550,#1610,.T.);
#1650=ORIENTED_EDGE('',*,*,#1640,.T.);
#1660=CARTESIAN_POINT('',(31.631009,-2.1999999999978,53.6700000002681));
#1670=DIRECTION('',(1.,1.62505346475528E-28,-1.52474024617862E-14));
#1680=VECTOR('',#1670,1.);
#1690=LINE('',#1660,#1680);
#1700=EDGE_CURVE('',#1070,#1630,#1690,.T.);
#1710=ORIENTED_EDGE('',*,*,#1700,.T.);
#1720=EDGE_LOOP('',(#1710,#1650,#1570,#1490,#1400,#1320,#1310,#1250,
#1240,#1170,#1090));
#1730=FACE_OUTER_BOUND('',#1720,.T.);
#1740=ADVANCED_FACE('',(#1730),#990,.T.);
#1750=COLOUR_RGB('',0.560784339904785,0.588235318660736,
0.600000023841858);
#1760=FILL_AREA_STYLE_COLOUR('',#1750);
#1770=FILL_AREA_STYLE('',(#1760));
#1780=SURFACE_STYLE_FILL_AREA(#1770);
#1790=SURFACE_SIDE_STYLE('',(#1780));
#1800=SURFACE_STYLE_USAGE(.BOTH.,#1790);
#1810=PRESENTATION_STYLE_ASSIGNMENT((#1800));
#1820=CARTESIAN_POINT('',(-42.4730737225004,-9.49805714443899,
50.6700000000095));
#1830=DIRECTION('',(0.984807753012147,-0.173648177667275,
1.99319813204573E-12));
#1840=DIRECTION('',(-0.173648177667275,-0.984807753012148,
-7.66150781907452E-13));
#1850=AXIS2_PLACEMENT_3D('',#1820,#1830,#1840);
#1860=PLANE('',#1850);
#1870=ORIENTED_EDGE('',*,*,#1080,.F.);
#1880=CARTESIAN_POINT('',(-41.1862293411869,-2.19999999999896,53.67));
#1890=DIRECTION('',(-2.02394642604032E-12,0.,1.));
#1900=VECTOR('',#1890,1.);
#1910=LINE('',#1880,#1900);
#1920=CARTESIAN_POINT('',(-41.1862293411913,-2.19999999999896,
55.8700000000045));
#1930=VERTEX_POINT('',#1920);
#1940=EDGE_CURVE('',#1070,#1930,#1910,.T.);
#1950=ORIENTED_EDGE('',*,*,#1940,.F.);
#1960=CARTESIAN_POINT('',(-44.7415329994041,-22.363129,55.8700000000003)
);
#1970=DIRECTION('',(-0.173648177667275,-0.984807753012147,
-7.7715611723761E-15));
#1980=VECTOR('',#1970,1.);
#1990=LINE('',#1960,#1980);
#2000=CARTESIAN_POINT('',(-42.4428327847451,-9.32655226387995,
55.8700000000045));
#2010=VERTEX_POINT('',#2000);
#2020=EDGE_CURVE('',#1930,#2010,#1990,.T.);
#2030=ORIENTED_EDGE('',*,*,#2020,.F.);
#2040=CARTESIAN_POINT('',(-42.4428327847451,-9.3265522639052,53.67));
#2050=DIRECTION('',(0.,-1.14783705698592E-11,-1.));
#2060=VECTOR('',#2050,1.);
#2070=LINE('',#2040,#2060);
#2080=EDGE_CURVE('',#2010,#1050,#2070,.T.);
#2090=ORIENTED_EDGE('',*,*,#2080,.F.);
#2100=EDGE_LOOP('',(#2090,#2030,#1950,#1870));
#2110=FACE_OUTER_BOUND('',#2100,.T.);
#2120=ADVANCED_FACE('',(#2110),#1860,.F.);
#2130=COLOUR_RGB('',0.560784339904785,0.588235318660736,
0.600000023841858);
#2140=FILL_AREA_STYLE_COLOUR('',#2130);
#2150=FILL_AREA_STYLE('',(#2140));
#2160=SURFACE_STYLE_FILL_AREA(#2150);
#2170=SURFACE_SIDE_STYLE('',(#2160));
#2180=SURFACE_STYLE_USAGE(.BOTH.,#2170);
#2190=PRESENTATION_STYLE_ASSIGNMENT((#2180));
#2200=CARTESIAN_POINT('',(31.6821672216756,-2.19999999999897,53.67));
#2210=DIRECTION('',(1.,0.,0.));
#2220=DIRECTION('',(0.,-1.,0.));
#2230=AXIS2_PLACEMENT_3D('',#2200,#2210,#2220);
#2240=PLANE('',#2230);
#2250=CARTESIAN_POINT('',(31.6821672216755,-22.363129,55.8699999999991))
;
#2260=DIRECTION('',(1.61716485570307E-28,1.,1.05655906439346E-14));
#2270=VECTOR('',#2260,1.);
#2280=LINE('',#2250,#2270);
#2290=CARTESIAN_POINT('',(31.6821672216756,-33.1999999933289,55.87));
#2300=VERTEX_POINT('',#2290);
#2310=EDGE_CURVE('',#680,#2300,#2280,.T.);
#2320=ORIENTED_EDGE('',*,*,#2310,.F.);
#2330=CARTESIAN_POINT('',(31.6821672216756,-33.1999999933289,53.67));
#2340=DIRECTION('',(0.,0.,1.));
#2350=VECTOR('',#2340,1.);
#2360=LINE('',#2330,#2350);
#2370=EDGE_CURVE('',#1380,#2300,#2360,.T.);
#2380=ORIENTED_EDGE('',*,*,#2370,.T.);
#2390=ORIENTED_EDGE('',*,*,#1390,.F.);
#2400=ORIENTED_EDGE('',*,*,#770,.T.);
#2410=EDGE_LOOP('',(#2400,#2390,#2380,#2320));
#2420=FACE_OUTER_BOUND('',#2410,.T.);
#2430=ADVANCED_FACE('',(#2420),#2240,.T.);
#2440=COLOUR_RGB('',0.560784339904785,0.588235318660736,
0.600000023841858);
#2450=FILL_AREA_STYLE_COLOUR('',#2440);
#2460=FILL_AREA_STYLE('',(#2450));
#2470=SURFACE_STYLE_FILL_AREA(#2460);
#2480=SURFACE_SIDE_STYLE('',(#2470));
#2490=SURFACE_STYLE_USAGE(.BOTH.,#2480);
#2500=PRESENTATION_STYLE_ASSIGNMENT((#2490));
#2510=CARTESIAN_POINT('',(-55.9613388123059,-23.7000000090567,
53.6700000000045));
#2520=DIRECTION('',(0.,0.,1.));
#2530=DIRECTION('',(1.,8.02136135291675E-14,0.));
#2540=AXIS2_PLACEMENT_3D('',#2510,#2520,#2530);
#2550=CYLINDRICAL_SURFACE('',#2540,15.);
#2560=ORIENTED_EDGE('',*,*,#1230,.F.);
#2570=CARTESIAN_POINT('',(-42.4428327847451,-17.2000004103797,
53.6700000000045));
#2580=DIRECTION('',(0.,0.,1.));
#2590=VECTOR('',#2580,1.);
#2600=LINE('',#2570,#2590);
#2610=CARTESIAN_POINT('',(-42.4428327847451,-17.2000004103797,
55.8700000000003));
#2620=VERTEX_POINT('',#2610);
#2630=EDGE_CURVE('',#1150,#2620,#2600,.T.);
#2640=ORIENTED_EDGE('',*,*,#2630,.F.);
#2650=CARTESIAN_POINT('',(-55.9613388123059,-23.7000000090567,
55.8700000000004));
#2660=DIRECTION('',(1.52474024617862E-14,-1.05655906439346E-14,1.));
#2670=DIRECTION('',(1.,8.02136135291677E-14,-1.52474024617853E-14));
#2680=AXIS2_PLACEMENT_3D('',#2650,#2660,#2670);
#2690=CIRCLE('',#2680,15.);
#2700=EDGE_CURVE('',#110,#2620,#2690,.T.);
#2710=ORIENTED_EDGE('',*,*,#2700,.T.);
#2720=ORIENTED_EDGE('',*,*,#360,.T.);
#2730=EDGE_LOOP('',(#2720,#2710,#2640,#2560));
#2740=FACE_OUTER_BOUND('',#2730,.T.);
#2750=ADVANCED_FACE('',(#2740),#2550,.F.);
#2760=COLOUR_RGB('',0.560784339904785,0.588235318660736,
0.600000023841858);
#2770=FILL_AREA_STYLE_COLOUR('',#2760);
#2780=FILL_AREA_STYLE('',(#2770));
#2790=SURFACE_STYLE_FILL_AREA(#2780);
#2800=SURFACE_SIDE_STYLE('',(#2790));
#2810=SURFACE_STYLE_USAGE(.BOTH.,#2800);
#2820=PRESENTATION_STYLE_ASSIGNMENT((#2810));
#2830=CARTESIAN_POINT('',(20.3321672216756,-38.2000000000014,
53.6700000000002));
#2840=DIRECTION('',(-0.,-1.,-0.));
#2850=DIRECTION('',(-1.,0.,0.));
#2860=AXIS2_PLACEMENT_3D('',#2830,#2840,#2850);
#2870=PLANE('',#2860);
#2880=ORIENTED_EDGE('',*,*,#610,.T.);
#2890=ORIENTED_EDGE('',*,*,#1300,.F.);
#2900=ORIENTED_EDGE('',*,*,#220,.F.);
#2910=CARTESIAN_POINT('',(31.631009,-38.2000000000014,55.869999999999));
#2920=DIRECTION('',(1.,1.62505346475528E-28,-1.52474024617862E-14));
#2930=VECTOR('',#2920,1.);
#2940=LINE('',#2910,#2930);
#2950=EDGE_CURVE('',#130,#600,#2940,.T.);
#2960=ORIENTED_EDGE('',*,*,#2950,.F.);
#2970=EDGE_LOOP('',(#2960,#2900,#2890,#2880));
#2980=FACE_OUTER_BOUND('',#2970,.T.);
#2990=ADVANCED_FACE('',(#2980),#2870,.T.);
#3000=COLOUR_RGB('',0.560784339904785,0.588235318660736,
0.600000023841858);
#3010=FILL_AREA_STYLE_COLOUR('',#3000);
#3020=FILL_AREA_STYLE('',(#3010));
#3030=SURFACE_STYLE_FILL_AREA(#3020);
#3040=SURFACE_SIDE_STYLE('',(#3030));
#3050=SURFACE_STYLE_USAGE(.BOTH.,#3040);
#3060=PRESENTATION_STYLE_ASSIGNMENT((#3050));
#3070=CARTESIAN_POINT('',(51.0986550670314,-25.200000008882,53.67));
#3080=DIRECTION('',(0.,0.,1.));
#3090=DIRECTION('',(1.,0.,0.));
#3100=AXIS2_PLACEMENT_3D('',#3070,#3080,#3090);
#3110=CYLINDRICAL_SURFACE('',#3100,21.);
#3120=ORIENTED_EDGE('',*,*,#2370,.F.);
#3130=CARTESIAN_POINT('',(51.0986550670314,-25.200000008882,
55.8699999999988));
#3140=DIRECTION('',(1.52474024617862E-14,-1.05655906439346E-14,1.));
#3150=DIRECTION('',(1.,1.61097812794554E-28,-1.52474024617862E-14));
#3160=AXIS2_PLACEMENT_3D('',#3130,#3140,#3150);
#3170=CIRCLE('',#3160,21.);
#3180=CARTESIAN_POINT('',(31.6821672216756,-17.2000000244351,
55.8699999999992));
#3190=VERTEX_POINT('',#3180);
#3200=EDGE_CURVE('',#3190,#2300,#3170,.T.);
#3210=ORIENTED_EDGE('',*,*,#3200,.T.);
#3220=CARTESIAN_POINT('',(31.6821672216756,-17.2000000244351,53.67));
#3230=DIRECTION('',(0.,0.,1.));
#3240=VECTOR('',#3230,1.);
#3250=LINE('',#3220,#3240);
#3260=EDGE_CURVE('',#1470,#3190,#3250,.T.);
#3270=ORIENTED_EDGE('',*,*,#3260,.T.);
#3280=ORIENTED_EDGE('',*,*,#1480,.F.);
#3290=EDGE_LOOP('',(#3280,#3270,#3210,#3120));
#3300=FACE_OUTER_BOUND('',#3290,.T.);
#3310=ADVANCED_FACE('',(#3300),#3110,.F.);
#3320=COLOUR_RGB('',0.560784339904785,0.588235318660736,
0.600000023841858);
#3330=FILL_AREA_STYLE_COLOUR('',#3320);
#3340=FILL_AREA_STYLE('',(#3330));
#3350=SURFACE_STYLE_FILL_AREA(#3340);
#3360=SURFACE_SIDE_STYLE('',(#3350));
#3370=SURFACE_STYLE_USAGE(.BOTH.,#3360);
#3380=PRESENTATION_STYLE_ASSIGNMENT((#3370));
#3390=ORIENTED_EDGE('',*,*,#2630,.T.);
#3400=ORIENTED_EDGE('',*,*,#1160,.F.);
#3410=ORIENTED_EDGE('',*,*,#2080,.T.);
#3420=CARTESIAN_POINT('',(-42.4428327847451,-22.363129,55.8700000000002)
);
#3430=DIRECTION('',(-1.61716485570307E-28,-1.,-1.05655906439346E-14));
#3440=VECTOR('',#3430,1.);
#3450=LINE('',#3420,#3440);
#3460=EDGE_CURVE('',#2010,#2620,#3450,.T.);
#3470=ORIENTED_EDGE('',*,*,#3460,.F.);
#3480=EDGE_LOOP('',(#3470,#3410,#3400,#3390));
#3490=FACE_OUTER_BOUND('',#3480,.T.);
#3500=ADVANCED_FACE('',(#3490),#50,.T.);
#3510=COLOUR_RGB('',0.560784339904785,0.588235318660736,
0.600000023841858);
#3520=FILL_AREA_STYLE_COLOUR('',#3510);
#3530=FILL_AREA_STYLE('',(#3520));
#3540=SURFACE_STYLE_FILL_AREA(#3530);
#3550=SURFACE_SIDE_STYLE('',(#3540));
#3560=SURFACE_STYLE_USAGE(.BOTH.,#3550);
#3570=PRESENTATION_STYLE_ASSIGNMENT((#3560));
#3580=CARTESIAN_POINT('',(-30.1303595072662,-2.19999999999897,
55.4881177917555));
#3590=DIRECTION('',(0.,1.,-0.));
#3600=DIRECTION('',(-1.,0.,0.));
#3610=AXIS2_PLACEMENT_3D('',#3580,#3590,#3600);
#3620=PLANE('',#3610);
#3630=ORIENTED_EDGE('',*,*,#1940,.T.);
#3640=ORIENTED_EDGE('',*,*,#1700,.F.);
#3650=CARTESIAN_POINT('',(30.4255635916216,-2.19999999999896,53.67));
#3660=DIRECTION('',(0.,0.,-1.));
#3670=VECTOR('',#3660,1.);
#3680=LINE('',#3650,#3670);
#3690=CARTESIAN_POINT('',(30.4255635916216,-2.19999999999896,
55.8699999999994));
#3700=VERTEX_POINT('',#3690);
#3710=EDGE_CURVE('',#3700,#1630,#3680,.T.);
#3720=ORIENTED_EDGE('',*,*,#3710,.T.);
#3730=CARTESIAN_POINT('',(31.631009,-2.19999999999783,55.8699999999993))
;
#3740=DIRECTION('',(-1.,-1.62505346475528E-28,1.52474024617862E-14));
#3750=VECTOR('',#3740,1.);
#3760=LINE('',#3730,#3750);
#3770=EDGE_CURVE('',#3700,#1930,#3760,.T.);
#3780=ORIENTED_EDGE('',*,*,#3770,.F.);
#3790=EDGE_LOOP('',(#3780,#3720,#3640,#3630));
#3800=FACE_OUTER_BOUND('',#3790,.T.);
#3810=ADVANCED_FACE('',(#3800),#3620,.T.);
#3820=COLOUR_RGB('',0.560784339904785,0.588235318660736,
0.600000023841858);
#3830=FILL_AREA_STYLE_COLOUR('',#3820);
#3840=FILL_AREA_STYLE('',(#3830));
#3850=SURFACE_STYLE_FILL_AREA(#3840);
#3860=SURFACE_SIDE_STYLE('',(#3850));
#3870=SURFACE_STYLE_USAGE(.BOTH.,#3860);
#3880=PRESENTATION_STYLE_ASSIGNMENT((#3870));
#3890=CARTESIAN_POINT('',(-7.5939704595387,-23.5207943518669,
55.8699999999997));
#3900=DIRECTION('',(1.52474024617862E-14,-1.05655906439346E-14,1.));
#3910=DIRECTION('',(1.,0.,-1.52474024617862E-14));
#3920=AXIS2_PLACEMENT_3D('',#3890,#3900,#3910);
#3930=PLANE('',#3920);
#3940=CARTESIAN_POINT('',(33.9808672499115,-22.363129,55.8699999999991))
;
#3950=DIRECTION('',(-0.173648177670928,0.984807753011503,
1.30451205393456E-14));
#3960=VECTOR('',#3950,1.);
#3970=LINE('',#3940,#3960);
#3980=CARTESIAN_POINT('',(31.6821672216756,-9.32655332142023,
55.8699999999993));
#3990=VERTEX_POINT('',#3980);
#4000=EDGE_CURVE('',#3990,#3700,#3970,.T.);
#4010=ORIENTED_EDGE('',*,*,#4000,.T.);
#4020=CARTESIAN_POINT('',(31.6821672216755,-22.363129,55.8699999999991))
;
#4030=DIRECTION('',(7.88860905221012E-31,1.,1.05655906439346E-14));
#4040=VECTOR('',#4030,1.);
#4050=LINE('',#4020,#4040);
#4060=EDGE_CURVE('',#3190,#3990,#4050,.T.);
#4070=ORIENTED_EDGE('',*,*,#4060,.T.);
#4080=ORIENTED_EDGE('',*,*,#3200,.F.);
#4090=ORIENTED_EDGE('',*,*,#2310,.T.);
#4100=ORIENTED_EDGE('',*,*,#690,.T.);
#4110=ORIENTED_EDGE('',*,*,#2950,.T.);
#4120=ORIENTED_EDGE('',*,*,#140,.T.);
#4130=ORIENTED_EDGE('',*,*,#2700,.F.);
#4140=ORIENTED_EDGE('',*,*,#3460,.T.);
#4150=ORIENTED_EDGE('',*,*,#2020,.T.);
#4160=ORIENTED_EDGE('',*,*,#3770,.T.);
#4170=EDGE_LOOP('',(#4160,#4150,#4140,#4130,#4120,#4110,#4100,#4090,
#4080,#4070,#4010));
#4180=FACE_OUTER_BOUND('',#4170,.T.);
#4190=ADVANCED_FACE('',(#4180),#3930,.T.);
#4200=COLOUR_RGB('',0.560784339904785,0.588235318660736,
0.600000023841858);
#4210=FILL_AREA_STYLE_COLOUR('',#4200);
#4220=FILL_AREA_STYLE('',(#4210));
#4230=SURFACE_STYLE_FILL_AREA(#4220);
#4240=SURFACE_SIDE_STYLE('',(#4230));
#4250=SURFACE_STYLE_USAGE(.BOTH.,#4240);
#4260=PRESENTATION_STYLE_ASSIGNMENT((#4250));
#4270=CARTESIAN_POINT('',(31.6821672216756,-2.19999999999897,53.67));
#4280=DIRECTION('',(1.,0.,0.));
#4290=DIRECTION('',(0.,-1.,0.));
#4300=AXIS2_PLACEMENT_3D('',#4270,#4280,#4290);
#4310=PLANE('',#4300);
#4320=ORIENTED_EDGE('',*,*,#1560,.F.);
#4330=ORIENTED_EDGE('',*,*,#3260,.F.);
#4340=ORIENTED_EDGE('',*,*,#4060,.F.);
#4350=CARTESIAN_POINT('',(31.6821672216756,-9.32655332142023,53.67));
#4360=DIRECTION('',(0.,0.,1.));
#4370=VECTOR('',#4360,1.);
#4380=LINE('',#4350,#4370);
#4390=EDGE_CURVE('',#1550,#3990,#4380,.T.);
#4400=ORIENTED_EDGE('',*,*,#4390,.T.);
#4410=EDGE_LOOP('',(#4400,#4340,#4330,#4320));
#4420=FACE_OUTER_BOUND('',#4410,.T.);
#4430=ADVANCED_FACE('',(#4420),#4310,.T.);
#4440=COLOUR_RGB('',0.560784339904785,0.588235318660736,
0.600000023841858);
#4450=FILL_AREA_STYLE_COLOUR('',#4440);
#4460=FILL_AREA_STYLE('',(#4450));
#4470=SURFACE_STYLE_FILL_AREA(#4460);
#4480=SURFACE_SIDE_STYLE('',(#4470));
#4490=SURFACE_STYLE_USAGE(.BOTH.,#4480);
#4500=PRESENTATION_STYLE_ASSIGNMENT((#4490));
#4510=CARTESIAN_POINT('',(31.6517827276986,-9.15423429313432,
51.4699975999976));
#4520=DIRECTION('',(-0.984807753011503,-0.173648177670928,-0.));
#4530=DIRECTION('',(-0.173648177670928,0.984807753011503,0.));
#4540=AXIS2_PLACEMENT_3D('',#4510,#4520,#4530);
#4550=PLANE('',#4540);
#4560=ORIENTED_EDGE('',*,*,#4000,.F.);
#4570=ORIENTED_EDGE('',*,*,#3710,.F.);
#4580=ORIENTED_EDGE('',*,*,#1640,.F.);
#4590=ORIENTED_EDGE('',*,*,#4390,.F.);
#4600=EDGE_LOOP('',(#4590,#4580,#4570,#4560));
#4610=FACE_OUTER_BOUND('',#4600,.T.);
#4620=ADVANCED_FACE('',(#4610),#4550,.F.);
#4630=COLOUR_RGB('',0.560784339904785,0.588235318660736,
0.600000023841858);
#4640=FILL_AREA_STYLE_COLOUR('',#4630);
#4650=FILL_AREA_STYLE('',(#4640));
#4660=SURFACE_STYLE_FILL_AREA(#4650);
#4670=SURFACE_SIDE_STYLE('',(#4660));
#4680=SURFACE_STYLE_USAGE(.BOTH.,#4670);
#4690=PRESENTATION_STYLE_ASSIGNMENT((#4680));
#4700=CLOSED_SHELL('',(#2430,#2750,#2990,#3310,#3500,#3810,#4190,#4430,
#4620,#400,#870,#1740,#2120));
#4710=MANIFOLD_SOLID_BREP('',#4700);
#4720=CARTESIAN_POINT('',(0.,0.,0.));
#4730=DIRECTION('',(0.,0.,1.));
#4740=DIRECTION('',(1.,0.,0.));
#4750=AXIS2_PLACEMENT_3D('',#4720,#4730,#4740);
#4760=APPLICATION_CONTEXT(' ');
#4770=APPLICATION_PROTOCOL_DEFINITION(' ','automotive_design',1998,#4760
);
#4780=PRODUCT_CONTEXT('',#4760,'mechanical');
#4790=PRODUCT_DEFINITION_CONTEXT('part definition',#4760,'design');
#4800=PRODUCT('D-PT_6-TWIN-select','D-PT_6-TWIN-select','',(#4780));
#4810=PRODUCT_RELATED_PRODUCT_CATEGORY('part',' ',(#4800));
#4820=PRODUCT_DEFINITION_FORMATION_WITH_SPECIFIED_SOURCE('','',#4800,
.BOUGHT.);
#4830=PRODUCT_DEFINITION('',' ',#4820,#4790);
#4840=PRODUCT_DEFINITION_SHAPE('','',#4830);
#4850=DIMENSIONAL_EXPONENTS(1.,0.,0.,0.,0.,0.,0.);
#4860=DIMENSIONAL_EXPONENTS(0.,0.,0.,0.,0.,0.,0.);
#4870=DIMENSIONAL_EXPONENTS(0.,0.,0.,0.,0.,0.,0.);
#4880=(LENGTH_UNIT() NAMED_UNIT(*) SI_UNIT(.MILLI.,.METRE.));
#4890=(NAMED_UNIT(*) PLANE_ANGLE_UNIT() SI_UNIT($,.RADIAN.));
#4900=(NAMED_UNIT(*) SI_UNIT($,.STERADIAN.) SOLID_ANGLE_UNIT());
#4910=(GEOMETRIC_REPRESENTATION_CONTEXT(3) 
GLOBAL_UNCERTAINTY_ASSIGNED_CONTEXT((#4920)) 
GLOBAL_UNIT_ASSIGNED_CONTEXT((#4880,#4890,#4900)) REPRESENTATION_CONTEXT
('',''));
#4920=UNCERTAINTY_MEASURE_WITH_UNIT(LENGTH_MEASURE(1.E-6),#4880,
'distance_accuracy_value','maximum gap value');
#4930=ADVANCED_BREP_SHAPE_REPRESENTATION('',(#4750,#4710),#4910);
#4940=SHAPE_DEFINITION_REPRESENTATION(#4840,#4930);
#4950=COLOUR_RGB('',0.560784339904785,0.588235318660736,
0.600000023841858);
#4960=FILL_AREA_STYLE_COLOUR('',#4950);
#4970=FILL_AREA_STYLE('',(#4960));
#4980=SURFACE_STYLE_FILL_AREA(#4970);
#4990=SURFACE_SIDE_STYLE('',(#4980));
#5000=SURFACE_STYLE_USAGE(.BOTH.,#4990);
#5010=PRESENTATION_STYLE_ASSIGNMENT((#5000));
#5020=STYLED_ITEM('',(#5010),#4710);
#5030=OVER_RIDING_STYLED_ITEM('',(#470),#400,#5020);
#5040=OVER_RIDING_STYLED_ITEM('',(#940),#870,#5020);
#5050=OVER_RIDING_STYLED_ITEM('',(#1810),#1740,#5020);
#5060=OVER_RIDING_STYLED_ITEM('',(#2190),#2120,#5020);
#5070=OVER_RIDING_STYLED_ITEM('',(#2500),#2430,#5020);
#5080=OVER_RIDING_STYLED_ITEM('',(#2820),#2750,#5020);
#5090=OVER_RIDING_STYLED_ITEM('',(#3060),#2990,#5020);
#5100=OVER_RIDING_STYLED_ITEM('',(#3380),#3310,#5020);
#5110=OVER_RIDING_STYLED_ITEM('',(#3570),#3500,#5020);
#5120=OVER_RIDING_STYLED_ITEM('',(#3880),#3810,#5020);
#5130=OVER_RIDING_STYLED_ITEM('',(#4260),#4190,#5020);
#5140=OVER_RIDING_STYLED_ITEM('',(#4500),#4430,#5020);
#5150=OVER_RIDING_STYLED_ITEM('',(#4690),#4620,#5020);
#5160=DRAUGHTING_MODEL('',(#5020,#5030,#5040,#5050,#5060,#5070,#5080,
#5090,#5100,#5110,#5120,#5130,#5140,#5150),#4910);
#5170=CARTESIAN_POINT('',(-53.6700001932339,42.4428329777114,
38.2000000002147));
#5180=DIRECTION('',(1.,0.,0.));
#5190=DIRECTION('',(0.,1.,0.));
#5200=AXIS2_PLACEMENT_3D('',#5170,#5180,#5190);
#5210=ITEM_DEFINED_TRANSFORMATION('D-PT_6-TWIN-select','',#4750,#5200);
#5220=APPLICATION_CONTEXT(' ');
#5230=APPLICATION_PROTOCOL_DEFINITION(' ','automotive_design',1998,#5220
);
#5240=PRODUCT_CONTEXT('',#5220,'mechanical');
#5250=PRODUCT_DEFINITION_CONTEXT('part definition',#5220,'design');
#5260=PRODUCT('D-PT_6-TWIN-select','D-PT_6-TWIN-select','',(#5240));
#5270=PRODUCT_RELATED_PRODUCT_CATEGORY('part',' ',(#5260));
#5280=PRODUCT_DEFINITION_FORMATION_WITH_SPECIFIED_SOURCE('','',#5260,
.BOUGHT.);
#5290=PRODUCT_DEFINITION('',' ',#5280,#5250);
#5300=PRODUCT_DEFINITION_SHAPE('','',#5290);
#5310=DIMENSIONAL_EXPONENTS(1.,0.,0.,0.,0.,0.,0.);
#5320=DIMENSIONAL_EXPONENTS(0.,0.,0.,0.,0.,0.,0.);
#5330=DIMENSIONAL_EXPONENTS(0.,0.,0.,0.,0.,0.,0.);
#5340=(LENGTH_UNIT() NAMED_UNIT(*) SI_UNIT(.MILLI.,.METRE.));
#5350=(NAMED_UNIT(*) PLANE_ANGLE_UNIT() SI_UNIT($,.RADIAN.));
#5360=(NAMED_UNIT(*) SI_UNIT($,.STERADIAN.) SOLID_ANGLE_UNIT());
#5370=(GEOMETRIC_REPRESENTATION_CONTEXT(3) 
GLOBAL_UNCERTAINTY_ASSIGNED_CONTEXT((#5380)) 
GLOBAL_UNIT_ASSIGNED_CONTEXT((#5340,#5350,#5360)) REPRESENTATION_CONTEXT
('',''));
#5380=UNCERTAINTY_MEASURE_WITH_UNIT(LENGTH_MEASURE(1.E-6),#5340,
'distance_accuracy_value','maximum gap value');
#5390=SHAPE_REPRESENTATION('',(#4750,#5200),#5370);
#5400=SHAPE_DEFINITION_REPRESENTATION(#5300,#5390);
#5410=(REPRESENTATION_RELATIONSHIP('','',#4930,#5390) 
REPRESENTATION_RELATIONSHIP_WITH_TRANSFORMATION(#5210) 
SHAPE_REPRESENTATION_RELATIONSHIP());
#5420=NEXT_ASSEMBLY_USAGE_OCCURRENCE('1','','D-PT_6-TWIN-select',#5290,
#4830,'');
#5430=PRODUCT_DEFINITION_SHAPE('','',#5420);
#5440=CONTEXT_DEPENDENT_SHAPE_REPRESENTATION(#5410,#5430);
ENDSEC;
END-ISO-10303-21;
