ISO-10303-21;
HEADER;
FILE_DESCRIPTION(('Creo Elements/Direct Modeling STEP Export'),'2;1');
FILE_NAME(
'D:/temp/JobSpoolerServerData/JobServer Files/8955b6fd-c440-4580-9790-c4
275fe21048/work/output/model.stp','2017-11-17T 6:05:43',(''),(''),
'Creo Elements/Direct Modeling STEP processor for AP214 (Solid Model)',
'Creo Elements/Direct Modeling 18.1I  14-Aug-2016 (C) Parametric Technol
ogy GmbH','');
FILE_SCHEMA(('AUTOMOTIVE_DESIGN { 1 0 10303 214 1 1 1 1 }'));
ENDSEC;
DATA;
#10=CARTESIAN_POINT('',(27.6481772508386,-3.97050078915333,
53.6700000002682));
#20=DIRECTION('',(-1.52474024617862E-14,1.05655906439346E-14,-1.));
#30=DIRECTION('',(-1.,-9.43689570931485E-16,1.52474024617862E-14));
#40=AXIS2_PLACEMENT_3D('',#10,#20,#30);
#50=PLANE('',#40);
#60=CARTESIAN_POINT('',(31.631009,-2.19999999999219,53.6700000002681));
#70=DIRECTION('',(-1.,5.551115123116E-17,1.52474024617862E-14));
#80=VECTOR('',#70,1.);
#90=LINE('',#60,#80);
#100=CARTESIAN_POINT('',(30.4255635916204,-2.19999999999219,
53.6700000002682));
#110=VERTEX_POINT('',#100);
#120=CARTESIAN_POINT('',(-24.7862293411856,-2.19999999999219,
53.670000000269));
#130=VERTEX_POINT('',#120);
#140=EDGE_CURVE('',#110,#130,#90,.T.);
#150=ORIENTED_EDGE('',*,*,#140,.F.);
#160=CARTESIAN_POINT('',(-28.3415329993983,-22.3631289999926,
53.6700000000043));
#170=DIRECTION('',(0.173648177667275,0.984807753012147,0.));
#180=VECTOR('',#170,1.);
#190=LINE('',#160,#180);
#200=CARTESIAN_POINT('',(-26.0428327847451,-9.32655226390524,
53.6700000002689));
#210=VERTEX_POINT('',#200);
#220=EDGE_CURVE('',#210,#130,#190,.T.);
#230=ORIENTED_EDGE('',*,*,#220,.T.);
#240=CARTESIAN_POINT('',(-26.0428329777101,-32.7431569697684,
53.6700000000043));
#250=DIRECTION('',(8.22675261247241E-14,-1.,0.));
#260=VECTOR('',#250,1.);
#270=LINE('',#240,#260);
#280=CARTESIAN_POINT('',(-26.0428327847451,-17.2000004103797,
53.670000000269));
#290=VERTEX_POINT('',#280);
#300=EDGE_CURVE('',#210,#290,#270,.T.);
#310=ORIENTED_EDGE('',*,*,#300,.F.);
#320=CARTESIAN_POINT('',(-39.5613388123059,-23.7000000090567,
53.6700000000043));
#330=DIRECTION('',(0.,0.,1.));
#340=DIRECTION('',(1.,8.02136135291675E-14,0.));
#350=AXIS2_PLACEMENT_3D('',#320,#330,#340);
#360=CIRCLE('',#350,15.);
#370=CARTESIAN_POINT('',(-26.0428327847451,-30.1999996077338,
53.670000000269));
#380=VERTEX_POINT('',#370);
#390=EDGE_CURVE('',#380,#290,#360,.T.);
#400=ORIENTED_EDGE('',*,*,#390,.T.);
#410=CARTESIAN_POINT('',(-26.0428327847451,-22.363129,53.6700000000043))
;
#420=DIRECTION('',(0.,-1.,0.));
#430=VECTOR('',#420,1.);
#440=LINE('',#410,#430);
#450=CARTESIAN_POINT('',(-26.0428327847451,-38.2000000000014,
53.6700000002686));
#460=VERTEX_POINT('',#450);
#470=EDGE_CURVE('',#380,#460,#440,.T.);
#480=ORIENTED_EDGE('',*,*,#470,.F.);
#490=CARTESIAN_POINT('',(31.631009,-38.2000000000014,53.6700000000043));
#500=DIRECTION('',(1.,0.,0.));
#510=VECTOR('',#500,1.);
#520=LINE('',#490,#510);
#530=CARTESIAN_POINT('',(29.1480207059165,-38.2000000000014,
53.6700000002678));
#540=VERTEX_POINT('',#530);
#550=EDGE_CURVE('',#460,#540,#520,.T.);
#560=ORIENTED_EDGE('',*,*,#550,.F.);
#570=CARTESIAN_POINT('',(61.4161531095074,-9.0149718801058E-9,
53.6699999999401));
#580=DIRECTION('',(0.645301686961442,0.763927832196679,
-1.35255695532521E-12));
#590=VECTOR('',#580,1.);
#600=LINE('',#570,#590);
#610=CARTESIAN_POINT('',(31.6821672216756,-35.2000000102784,
53.6700000002678));
#620=VERTEX_POINT('',#610);
#630=EDGE_CURVE('',#540,#620,#600,.T.);
#640=ORIENTED_EDGE('',*,*,#630,.F.);
#650=CARTESIAN_POINT('',(31.6821672216756,-22.363129,53.6700000000043));
#660=DIRECTION('',(0.,1.,0.));
#670=VECTOR('',#660,1.);
#680=LINE('',#650,#670);
#690=CARTESIAN_POINT('',(31.6821672216755,-33.1999999933289,
53.6700000002676));
#700=VERTEX_POINT('',#690);
#710=EDGE_CURVE('',#620,#700,#680,.T.);
#720=ORIENTED_EDGE('',*,*,#710,.F.);
#730=CARTESIAN_POINT('',(51.0986550670314,-25.200000008882,53.67));
#740=DIRECTION('',(0.,0.,1.));
#750=DIRECTION('',(1.,0.,0.));
#760=AXIS2_PLACEMENT_3D('',#730,#740,#750);
#770=CIRCLE('',#760,21.);
#780=CARTESIAN_POINT('',(31.6821672216756,-17.2000000244351,
53.6700000002676));
#790=VERTEX_POINT('',#780);
#800=EDGE_CURVE('',#790,#700,#770,.T.);
#810=ORIENTED_EDGE('',*,*,#800,.T.);
#820=CARTESIAN_POINT('',(31.6821672216756,-22.363129,53.6700000000032));
#830=DIRECTION('',(0.,1.,0.));
#840=VECTOR('',#830,1.);
#850=LINE('',#820,#840);
#860=CARTESIAN_POINT('',(31.6821672216756,-9.32655332142022,
53.6700000002681));
#870=VERTEX_POINT('',#860);
#880=EDGE_CURVE('',#790,#870,#850,.T.);
#890=ORIENTED_EDGE('',*,*,#880,.F.);
#900=CARTESIAN_POINT('',(33.9808672499115,-22.363129,53.6700000002679));
#910=DIRECTION('',(-0.173648177670928,0.984807753011503,
1.30451205393456E-14));
#920=VECTOR('',#910,1.);
#930=LINE('',#900,#920);
#940=EDGE_CURVE('',#870,#110,#930,.T.);
#950=ORIENTED_EDGE('',*,*,#940,.F.);
#960=EDGE_LOOP('',(#950,#890,#810,#720,#640,#560,#480,#400,#310,#230,
#150));
#970=FACE_OUTER_BOUND('',#960,.T.);
#980=ADVANCED_FACE('',(#970),#50,.T.);
#990=COLOUR_RGB('',0.560784339904785,0.588235318660736,0.600000023841858
);
#1000=FILL_AREA_STYLE_COLOUR('',#990);
#1010=FILL_AREA_STYLE('',(#1000));
#1020=SURFACE_STYLE_FILL_AREA(#1010);
#1030=SURFACE_SIDE_STYLE('',(#1020));
#1040=SURFACE_STYLE_USAGE(.BOTH.,#1030);
#1050=PRESENTATION_STYLE_ASSIGNMENT((#1040));
#1060=CARTESIAN_POINT('',(29.1480207059165,-38.2000000000014,
55.8699999999994));
#1070=DIRECTION('',(0.763927832196679,-0.645301686961442,0.));
#1080=DIRECTION('',(-0.645301686961442,-0.763927832196679,0.));
#1090=AXIS2_PLACEMENT_3D('',#1060,#1070,#1080);
#1100=PLANE('',#1090);
#1110=CARTESIAN_POINT('',(61.4161531095077,-9.01462371416528E-9,
55.8699999999994));
#1120=DIRECTION('',(-0.645301686961442,-0.763927832196679,0.));
#1130=VECTOR('',#1120,1.);
#1140=LINE('',#1110,#1130);
#1150=CARTESIAN_POINT('',(31.6821672216756,-35.2000000102784,
55.869999999999));
#1160=VERTEX_POINT('',#1150);
#1170=CARTESIAN_POINT('',(29.1480207059165,-38.2000000000014,
55.869999999999));
#1180=VERTEX_POINT('',#1170);
#1190=EDGE_CURVE('',#1160,#1180,#1140,.T.);
#1200=ORIENTED_EDGE('',*,*,#1190,.T.);
#1210=CARTESIAN_POINT('',(31.6821672216756,-35.2000000102784,53.67));
#1220=DIRECTION('',(0.,0.,1.));
#1230=VECTOR('',#1220,1.);
#1240=LINE('',#1210,#1230);
#1250=EDGE_CURVE('',#620,#1160,#1240,.T.);
#1260=ORIENTED_EDGE('',*,*,#1250,.T.);
#1270=ORIENTED_EDGE('',*,*,#630,.T.);
#1280=CARTESIAN_POINT('',(29.1480207059165,-38.2000000000014,53.67));
#1290=DIRECTION('',(0.,0.,-1.));
#1300=VECTOR('',#1290,1.);
#1310=LINE('',#1280,#1300);
#1320=EDGE_CURVE('',#1180,#540,#1310,.T.);
#1330=ORIENTED_EDGE('',*,*,#1320,.T.);
#1340=EDGE_LOOP('',(#1330,#1270,#1260,#1200));
#1350=FACE_OUTER_BOUND('',#1340,.T.);
#1360=ADVANCED_FACE('',(#1350),#1100,.T.);
#1370=COLOUR_RGB('',0.560784339904785,0.588235318660736,
0.600000023841858);
#1380=FILL_AREA_STYLE_COLOUR('',#1370);
#1390=FILL_AREA_STYLE('',(#1380));
#1400=SURFACE_STYLE_FILL_AREA(#1390);
#1410=SURFACE_SIDE_STYLE('',(#1400));
#1420=SURFACE_STYLE_USAGE(.BOTH.,#1410);
#1430=PRESENTATION_STYLE_ASSIGNMENT((#1420));
#1440=CARTESIAN_POINT('',(31.6821672216756,-2.19999999999897,53.67));
#1450=DIRECTION('',(1.,0.,0.));
#1460=DIRECTION('',(0.,-1.,0.));
#1470=AXIS2_PLACEMENT_3D('',#1440,#1450,#1460);
#1480=PLANE('',#1470);
#1490=CARTESIAN_POINT('',(31.6821672216756,-22.363129,55.8699999999994))
;
#1500=DIRECTION('',(0.,-1.,0.));
#1510=VECTOR('',#1500,1.);
#1520=LINE('',#1490,#1510);
#1530=CARTESIAN_POINT('',(31.6821672216755,-33.1999999933289,
55.8699999999988));
#1540=VERTEX_POINT('',#1530);
#1550=EDGE_CURVE('',#1540,#1160,#1520,.T.);
#1560=ORIENTED_EDGE('',*,*,#1550,.T.);
#1570=CARTESIAN_POINT('',(31.6821672216756,-33.1999999933289,53.67));
#1580=DIRECTION('',(0.,0.,1.));
#1590=VECTOR('',#1580,1.);
#1600=LINE('',#1570,#1590);
#1610=EDGE_CURVE('',#700,#1540,#1600,.T.);
#1620=ORIENTED_EDGE('',*,*,#1610,.T.);
#1630=ORIENTED_EDGE('',*,*,#710,.T.);
#1640=ORIENTED_EDGE('',*,*,#1250,.F.);
#1650=EDGE_LOOP('',(#1640,#1630,#1620,#1560));
#1660=FACE_OUTER_BOUND('',#1650,.T.);
#1670=ADVANCED_FACE('',(#1660),#1480,.T.);
#1680=COLOUR_RGB('',0.560784339904785,0.588235318660736,
0.600000023841858);
#1690=FILL_AREA_STYLE_COLOUR('',#1680);
#1700=FILL_AREA_STYLE('',(#1690));
#1710=SURFACE_STYLE_FILL_AREA(#1700);
#1720=SURFACE_SIDE_STYLE('',(#1710));
#1730=SURFACE_STYLE_USAGE(.BOTH.,#1720);
#1740=PRESENTATION_STYLE_ASSIGNMENT((#1730));
#1750=CARTESIAN_POINT('',(-39.5613388123059,-23.7000000090567,
53.6700000000043));
#1760=DIRECTION('',(0.,0.,1.));
#1770=DIRECTION('',(1.,8.02136135291675E-14,0.));
#1780=AXIS2_PLACEMENT_3D('',#1750,#1760,#1770);
#1790=CYLINDRICAL_SURFACE('',#1780,15.);
#1800=ORIENTED_EDGE('',*,*,#390,.F.);
#1810=CARTESIAN_POINT('',(-26.0428327847451,-17.2000004103797,
53.6700000000043));
#1820=DIRECTION('',(0.,0.,1.));
#1830=VECTOR('',#1820,1.);
#1840=LINE('',#1810,#1830);
#1850=CARTESIAN_POINT('',(-26.0428327847451,-17.2000004103797,
55.8700000000002));
#1860=VERTEX_POINT('',#1850);
#1870=EDGE_CURVE('',#290,#1860,#1840,.T.);
#1880=ORIENTED_EDGE('',*,*,#1870,.F.);
#1890=CARTESIAN_POINT('',(-39.5613388123059,-23.7000000090567,
55.8699999999994));
#1900=DIRECTION('',(0.,0.,1.));
#1910=DIRECTION('',(1.,8.02136135291675E-14,0.));
#1920=AXIS2_PLACEMENT_3D('',#1890,#1900,#1910);
#1930=CIRCLE('',#1920,15.);
#1940=CARTESIAN_POINT('',(-26.0428327847451,-30.1999996077338,
55.8700000000002));
#1950=VERTEX_POINT('',#1940);
#1960=EDGE_CURVE('',#1950,#1860,#1930,.T.);
#1970=ORIENTED_EDGE('',*,*,#1960,.T.);
#1980=CARTESIAN_POINT('',(-26.0428327847451,-30.1999996077338,
53.6700000000043));
#1990=DIRECTION('',(0.,0.,1.));
#2000=VECTOR('',#1990,1.);
#2010=LINE('',#1980,#2000);
#2020=EDGE_CURVE('',#380,#1950,#2010,.T.);
#2030=ORIENTED_EDGE('',*,*,#2020,.T.);
#2040=EDGE_LOOP('',(#2030,#1970,#1880,#1800));
#2050=FACE_OUTER_BOUND('',#2040,.T.);
#2060=ADVANCED_FACE('',(#2050),#1790,.F.);
#2070=COLOUR_RGB('',0.560784339904785,0.588235318660736,
0.600000023841858);
#2080=FILL_AREA_STYLE_COLOUR('',#2070);
#2090=FILL_AREA_STYLE('',(#2080));
#2100=SURFACE_STYLE_FILL_AREA(#2090);
#2110=SURFACE_SIDE_STYLE('',(#2100));
#2120=SURFACE_STYLE_USAGE(.BOTH.,#2110);
#2130=PRESENTATION_STYLE_ASSIGNMENT((#2120));
#2140=CARTESIAN_POINT('',(51.0986550670314,-25.200000008882,53.67));
#2150=DIRECTION('',(0.,0.,1.));
#2160=DIRECTION('',(1.,0.,0.));
#2170=AXIS2_PLACEMENT_3D('',#2140,#2150,#2160);
#2180=CYLINDRICAL_SURFACE('',#2170,21.);
#2190=ORIENTED_EDGE('',*,*,#1610,.F.);
#2200=CARTESIAN_POINT('',(51.0986550670314,-25.200000008882,55.87));
#2210=DIRECTION('',(0.,0.,1.));
#2220=DIRECTION('',(1.,0.,0.));
#2230=AXIS2_PLACEMENT_3D('',#2200,#2210,#2220);
#2240=CIRCLE('',#2230,21.);
#2250=CARTESIAN_POINT('',(31.6821672216756,-17.2000000244351,
55.8699999999988));
#2260=VERTEX_POINT('',#2250);
#2270=EDGE_CURVE('',#2260,#1540,#2240,.T.);
#2280=ORIENTED_EDGE('',*,*,#2270,.T.);
#2290=CARTESIAN_POINT('',(31.6821672216756,-17.2000000244351,53.67));
#2300=DIRECTION('',(0.,0.,1.));
#2310=VECTOR('',#2300,1.);
#2320=LINE('',#2290,#2310);
#2330=EDGE_CURVE('',#790,#2260,#2320,.T.);
#2340=ORIENTED_EDGE('',*,*,#2330,.T.);
#2350=ORIENTED_EDGE('',*,*,#800,.F.);
#2360=EDGE_LOOP('',(#2350,#2340,#2280,#2190));
#2370=FACE_OUTER_BOUND('',#2360,.T.);
#2380=ADVANCED_FACE('',(#2370),#2180,.F.);
#2390=COLOUR_RGB('',0.560784339904785,0.588235318660736,
0.600000023841858);
#2400=FILL_AREA_STYLE_COLOUR('',#2390);
#2410=FILL_AREA_STYLE('',(#2400));
#2420=SURFACE_STYLE_FILL_AREA(#2410);
#2430=SURFACE_SIDE_STYLE('',(#2420));
#2440=SURFACE_STYLE_USAGE(.BOTH.,#2430);
#2450=PRESENTATION_STYLE_ASSIGNMENT((#2440));
#2460=CARTESIAN_POINT('',(36.7321672216756,-38.2000000000014,53.67));
#2470=DIRECTION('',(-0.,-1.,-0.));
#2480=DIRECTION('',(-1.,0.,0.));
#2490=AXIS2_PLACEMENT_3D('',#2460,#2470,#2480);
#2500=PLANE('',#2490);
#2510=CARTESIAN_POINT('',(-26.0428327847451,-38.2000000000014,53.67));
#2520=DIRECTION('',(0.,0.,1.));
#2530=VECTOR('',#2520,1.);
#2540=LINE('',#2510,#2530);
#2550=CARTESIAN_POINT('',(-26.0428327847451,-38.2000000000014,
55.8699999999998));
#2560=VERTEX_POINT('',#2550);
#2570=EDGE_CURVE('',#460,#2560,#2540,.T.);
#2580=ORIENTED_EDGE('',*,*,#2570,.F.);
#2590=CARTESIAN_POINT('',(31.631009,-38.2000000000014,55.8699999999994))
;
#2600=DIRECTION('',(-1.,0.,0.));
#2610=VECTOR('',#2600,1.);
#2620=LINE('',#2590,#2610);
#2630=EDGE_CURVE('',#1180,#2560,#2620,.T.);
#2640=ORIENTED_EDGE('',*,*,#2630,.T.);
#2650=ORIENTED_EDGE('',*,*,#1320,.F.);
#2660=ORIENTED_EDGE('',*,*,#550,.T.);
#2670=EDGE_LOOP('',(#2660,#2650,#2640,#2580));
#2680=FACE_OUTER_BOUND('',#2670,.T.);
#2690=ADVANCED_FACE('',(#2680),#2500,.T.);
#2700=COLOUR_RGB('',0.560784339904785,0.588235318660736,
0.600000023841858);
#2710=FILL_AREA_STYLE_COLOUR('',#2700);
#2720=FILL_AREA_STYLE('',(#2710));
#2730=SURFACE_STYLE_FILL_AREA(#2720);
#2740=SURFACE_SIDE_STYLE('',(#2730));
#2750=SURFACE_STYLE_USAGE(.BOTH.,#2740);
#2760=PRESENTATION_STYLE_ASSIGNMENT((#2750));
#2770=CARTESIAN_POINT('',(-26.0428327847451,-38.199999999994,
53.6700000000043));
#2780=DIRECTION('',(-1.,0.,0.));
#2790=DIRECTION('',(0.,1.,0.));
#2800=AXIS2_PLACEMENT_3D('',#2770,#2780,#2790);
#2810=PLANE('',#2800);
#2820=CARTESIAN_POINT('',(-26.0428327847451,-22.363129,55.8699999999994)
);
#2830=DIRECTION('',(0.,1.,0.));
#2840=VECTOR('',#2830,1.);
#2850=LINE('',#2820,#2840);
#2860=EDGE_CURVE('',#2560,#1950,#2850,.T.);
#2870=ORIENTED_EDGE('',*,*,#2860,.T.);
#2880=ORIENTED_EDGE('',*,*,#2570,.T.);
#2890=ORIENTED_EDGE('',*,*,#470,.T.);
#2900=ORIENTED_EDGE('',*,*,#2020,.F.);
#2910=EDGE_LOOP('',(#2900,#2890,#2880,#2870));
#2920=FACE_OUTER_BOUND('',#2910,.T.);
#2930=ADVANCED_FACE('',(#2920),#2810,.T.);
#2940=COLOUR_RGB('',0.560784339904785,0.588235318660736,
0.600000023841858);
#2950=FILL_AREA_STYLE_COLOUR('',#2940);
#2960=FILL_AREA_STYLE('',(#2950));
#2970=SURFACE_STYLE_FILL_AREA(#2960);
#2980=SURFACE_SIDE_STYLE('',(#2970));
#2990=SURFACE_STYLE_USAGE(.BOTH.,#2980);
#3000=PRESENTATION_STYLE_ASSIGNMENT((#2990));
#3010=ORIENTED_EDGE('',*,*,#1870,.T.);
#3020=ORIENTED_EDGE('',*,*,#300,.T.);
#3030=CARTESIAN_POINT('',(-26.0428327847451,-9.32655226390524,53.67));
#3040=DIRECTION('',(0.,-1.14783705698592E-11,-1.));
#3050=VECTOR('',#3040,1.);
#3060=LINE('',#3030,#3050);
#3070=CARTESIAN_POINT('',(-26.0428327847451,-9.32655226387999,
55.8700000000001));
#3080=VERTEX_POINT('',#3070);
#3090=EDGE_CURVE('',#3080,#210,#3060,.T.);
#3100=ORIENTED_EDGE('',*,*,#3090,.T.);
#3110=CARTESIAN_POINT('',(-26.0428327847451,-22.3631289999926,
55.8700000000043));
#3120=DIRECTION('',(0.,1.,0.));
#3130=VECTOR('',#3120,1.);
#3140=LINE('',#3110,#3130);
#3150=EDGE_CURVE('',#1860,#3080,#3140,.T.);
#3160=ORIENTED_EDGE('',*,*,#3150,.T.);
#3170=EDGE_LOOP('',(#3160,#3100,#3020,#3010));
#3180=FACE_OUTER_BOUND('',#3170,.T.);
#3190=ADVANCED_FACE('',(#3180),#2810,.T.);
#3200=COLOUR_RGB('',0.560784339904785,0.588235318660736,
0.600000023841858);
#3210=FILL_AREA_STYLE_COLOUR('',#3200);
#3220=FILL_AREA_STYLE('',(#3210));
#3230=SURFACE_STYLE_FILL_AREA(#3220);
#3240=SURFACE_SIDE_STYLE('',(#3230));
#3250=SURFACE_STYLE_USAGE(.BOTH.,#3240);
#3260=PRESENTATION_STYLE_ASSIGNMENT((#3250));
#3270=CARTESIAN_POINT('',(-26.0730737225004,-9.49805714443899,
50.6700000000092));
#3280=DIRECTION('',(0.984807753012147,-0.173648177667275,
1.99319813204573E-12));
#3290=DIRECTION('',(-0.173648177667275,-0.984807753012148,
-7.66150781907452E-13));
#3300=AXIS2_PLACEMENT_3D('',#3270,#3280,#3290);
#3310=PLANE('',#3300);
#3320=ORIENTED_EDGE('',*,*,#220,.F.);
#3330=CARTESIAN_POINT('',(-24.7862293411857,-2.19999999999219,53.67));
#3340=DIRECTION('',(-2.02580942473797E-12,-1.05655906439341E-14,1.));
#3350=VECTOR('',#3340,1.);
#3360=LINE('',#3330,#3350);
#3370=CARTESIAN_POINT('',(-24.7862293411901,-2.19999999999222,
55.8700000000002));
#3380=VERTEX_POINT('',#3370);
#3390=EDGE_CURVE('',#130,#3380,#3360,.T.);
#3400=ORIENTED_EDGE('',*,*,#3390,.F.);
#3410=CARTESIAN_POINT('',(-28.3415329994027,-22.3631289999926,
55.8700000000043));
#3420=DIRECTION('',(-0.173648177667275,-0.984807753012147,0.));
#3430=VECTOR('',#3420,1.);
#3440=LINE('',#3410,#3430);
#3450=EDGE_CURVE('',#3380,#3080,#3440,.T.);
#3460=ORIENTED_EDGE('',*,*,#3450,.F.);
#3470=ORIENTED_EDGE('',*,*,#3090,.F.);
#3480=EDGE_LOOP('',(#3470,#3460,#3400,#3320));
#3490=FACE_OUTER_BOUND('',#3480,.T.);
#3500=ADVANCED_FACE('',(#3490),#3310,.F.);
#3510=COLOUR_RGB('',0.560784339904785,0.588235318660736,
0.600000023841858);
#3520=FILL_AREA_STYLE_COLOUR('',#3510);
#3530=FILL_AREA_STYLE('',(#3520));
#3540=SURFACE_STYLE_FILL_AREA(#3530);
#3550=SURFACE_SIDE_STYLE('',(#3540));
#3560=SURFACE_STYLE_USAGE(.BOTH.,#3550);
#3570=PRESENTATION_STYLE_ASSIGNMENT((#3560));
#3580=CARTESIAN_POINT('',(-5.7363325039233,-2.19999999999219,
53.9700000000044));
#3590=DIRECTION('',(5.5511151231321E-17,1.,1.05655906439346E-14));
#3600=DIRECTION('',(-1.,5.55111512311599E-17,1.52474024617862E-14));
#3610=AXIS2_PLACEMENT_3D('',#3580,#3590,#3600);
#3620=PLANE('',#3610);
#3630=CARTESIAN_POINT('',(31.631009,-2.19999999999222,55.8699999999993))
;
#3640=DIRECTION('',(1.,-5.551115123116E-17,-1.52474024617862E-14));
#3650=VECTOR('',#3640,1.);
#3660=LINE('',#3630,#3650);
#3670=CARTESIAN_POINT('',(30.4255635916204,-2.19999999999221,
55.8699999999993));
#3680=VERTEX_POINT('',#3670);
#3690=EDGE_CURVE('',#3380,#3680,#3660,.T.);
#3700=ORIENTED_EDGE('',*,*,#3690,.T.);
#3710=ORIENTED_EDGE('',*,*,#3390,.T.);
#3720=ORIENTED_EDGE('',*,*,#140,.T.);
#3730=CARTESIAN_POINT('',(30.4255635916204,-2.19999999999219,53.67));
#3740=DIRECTION('',(1.86299869769082E-15,-1.05655906439346E-14,1.));
#3750=VECTOR('',#3740,1.);
#3760=LINE('',#3730,#3750);
#3770=EDGE_CURVE('',#110,#3680,#3760,.T.);
#3780=ORIENTED_EDGE('',*,*,#3770,.F.);
#3790=EDGE_LOOP('',(#3780,#3720,#3710,#3700));
#3800=FACE_OUTER_BOUND('',#3790,.T.);
#3810=ADVANCED_FACE('',(#3800),#3620,.T.);
#3820=COLOUR_RGB('',0.560784339904785,0.588235318660736,
0.600000023841858);
#3830=FILL_AREA_STYLE_COLOUR('',#3820);
#3840=FILL_AREA_STYLE('',(#3830));
#3850=SURFACE_STYLE_FILL_AREA(#3840);
#3860=SURFACE_SIDE_STYLE('',(#3850));
#3870=SURFACE_STYLE_USAGE(.BOTH.,#3860);
#3880=PRESENTATION_STYLE_ASSIGNMENT((#3870));
#3890=CARTESIAN_POINT('',(31.6821672216756,-2.19999999999897,53.67));
#3900=DIRECTION('',(1.,0.,0.));
#3910=DIRECTION('',(0.,-1.,0.));
#3920=AXIS2_PLACEMENT_3D('',#3890,#3900,#3910);
#3930=PLANE('',#3920);
#3940=ORIENTED_EDGE('',*,*,#880,.T.);
#3950=ORIENTED_EDGE('',*,*,#2330,.F.);
#3960=CARTESIAN_POINT('',(31.6821672216756,-22.363129,55.8699999999994))
;
#3970=DIRECTION('',(0.,-1.,0.));
#3980=VECTOR('',#3970,1.);
#3990=LINE('',#3960,#3980);
#4000=CARTESIAN_POINT('',(31.6821672216756,-9.32655332142022,
55.8699999999993));
#4010=VERTEX_POINT('',#4000);
#4020=EDGE_CURVE('',#4010,#2260,#3990,.T.);
#4030=ORIENTED_EDGE('',*,*,#4020,.T.);
#4040=CARTESIAN_POINT('',(31.6821672216756,-9.32655332142023,53.67));
#4050=DIRECTION('',(0.,0.,1.));
#4060=VECTOR('',#4050,1.);
#4070=LINE('',#4040,#4060);
#4080=EDGE_CURVE('',#870,#4010,#4070,.T.);
#4090=ORIENTED_EDGE('',*,*,#4080,.T.);
#4100=EDGE_LOOP('',(#4090,#4030,#3950,#3940));
#4110=FACE_OUTER_BOUND('',#4100,.T.);
#4120=ADVANCED_FACE('',(#4110),#3930,.T.);
#4130=COLOUR_RGB('',0.560784339904785,0.588235318660736,
0.600000023841858);
#4140=FILL_AREA_STYLE_COLOUR('',#4130);
#4150=FILL_AREA_STYLE('',(#4140));
#4160=SURFACE_STYLE_FILL_AREA(#4150);
#4170=SURFACE_SIDE_STYLE('',(#4160));
#4180=SURFACE_STYLE_USAGE(.BOTH.,#4170);
#4190=PRESENTATION_STYLE_ASSIGNMENT((#4180));
#4200=CARTESIAN_POINT('',(62.3810090000004,-20.3131290023233,
55.8699999999987));
#4210=DIRECTION('',(1.52474024617862E-14,-1.05655906439346E-14,1.));
#4220=DIRECTION('',(1.,9.43689570931485E-16,-1.52474024617862E-14));
#4230=AXIS2_PLACEMENT_3D('',#4200,#4210,#4220);
#4240=PLANE('',#4230);
#4250=CARTESIAN_POINT('',(33.9808672499115,-22.363129,55.8699999999991))
;
#4260=DIRECTION('',(0.173648177670928,-0.984807753011503,
-1.30451205393456E-14));
#4270=VECTOR('',#4260,1.);
#4280=LINE('',#4250,#4270);
#4290=EDGE_CURVE('',#3680,#4010,#4280,.T.);
#4300=ORIENTED_EDGE('',*,*,#4290,.F.);
#4310=ORIENTED_EDGE('',*,*,#4020,.F.);
#4320=ORIENTED_EDGE('',*,*,#2270,.F.);
#4330=ORIENTED_EDGE('',*,*,#1550,.F.);
#4340=ORIENTED_EDGE('',*,*,#1190,.F.);
#4350=ORIENTED_EDGE('',*,*,#2630,.F.);
#4360=ORIENTED_EDGE('',*,*,#2860,.F.);
#4370=ORIENTED_EDGE('',*,*,#1960,.F.);
#4380=ORIENTED_EDGE('',*,*,#3150,.F.);
#4390=ORIENTED_EDGE('',*,*,#3450,.T.);
#4400=ORIENTED_EDGE('',*,*,#3690,.F.);
#4410=EDGE_LOOP('',(#4400,#4390,#4380,#4370,#4360,#4350,#4340,#4330,
#4320,#4310,#4300));
#4420=FACE_OUTER_BOUND('',#4410,.T.);
#4430=ADVANCED_FACE('',(#4420),#4240,.T.);
#4440=COLOUR_RGB('',0.560784339904785,0.588235318660736,
0.600000023841858);
#4450=FILL_AREA_STYLE_COLOUR('',#4440);
#4460=FILL_AREA_STYLE('',(#4450));
#4470=SURFACE_STYLE_FILL_AREA(#4460);
#4480=SURFACE_SIDE_STYLE('',(#4470));
#4490=SURFACE_STYLE_USAGE(.BOTH.,#4480);
#4500=PRESENTATION_STYLE_ASSIGNMENT((#4490));
#4510=CARTESIAN_POINT('',(31.6517827276986,-9.15423429313432,
51.4699975999976));
#4520=DIRECTION('',(-0.984807753011503,-0.173648177670928,-0.));
#4530=DIRECTION('',(-0.173648177670928,0.984807753011503,0.));
#4540=AXIS2_PLACEMENT_3D('',#4510,#4520,#4530);
#4550=PLANE('',#4540);
#4560=ORIENTED_EDGE('',*,*,#3770,.T.);
#4570=ORIENTED_EDGE('',*,*,#940,.T.);
#4580=ORIENTED_EDGE('',*,*,#4080,.F.);
#4590=ORIENTED_EDGE('',*,*,#4290,.T.);
#4600=EDGE_LOOP('',(#4590,#4580,#4570,#4560));
#4610=FACE_OUTER_BOUND('',#4600,.T.);
#4620=ADVANCED_FACE('',(#4610),#4550,.F.);
#4630=COLOUR_RGB('',0.560784339904785,0.588235318660736,
0.600000023841858);
#4640=FILL_AREA_STYLE_COLOUR('',#4630);
#4650=FILL_AREA_STYLE('',(#4640));
#4660=SURFACE_STYLE_FILL_AREA(#4650);
#4670=SURFACE_SIDE_STYLE('',(#4660));
#4680=SURFACE_STYLE_USAGE(.BOTH.,#4670);
#4690=PRESENTATION_STYLE_ASSIGNMENT((#4680));
#4700=CLOSED_SHELL('',(#1670,#2060,#2380,#2690,#2930,#3190,#3500,#3810,
#4120,#4430,#4620,#980,#1360));
#4710=MANIFOLD_SOLID_BREP('',#4700);
#4720=CARTESIAN_POINT('',(0.,0.,0.));
#4730=DIRECTION('',(0.,0.,1.));
#4740=DIRECTION('',(1.,0.,0.));
#4750=AXIS2_PLACEMENT_3D('',#4720,#4730,#4740);
#4760=APPLICATION_CONTEXT(' ');
#4770=APPLICATION_PROTOCOL_DEFINITION(' ','automotive_design',1998,#4760
);
#4780=PRODUCT_CONTEXT('',#4760,'mechanical');
#4790=PRODUCT_DEFINITION_CONTEXT('part definition',#4760,'design');
#4800=PRODUCT('D-PT_6-select','D-PT_6-select','',(#4780));
#4810=PRODUCT_RELATED_PRODUCT_CATEGORY('part',' ',(#4800));
#4820=PRODUCT_DEFINITION_FORMATION_WITH_SPECIFIED_SOURCE('','',#4800,
.BOUGHT.);
#4830=PRODUCT_DEFINITION('',' ',#4820,#4790);
#4840=PRODUCT_DEFINITION_SHAPE('','',#4830);
#4850=DIMENSIONAL_EXPONENTS(1.,0.,0.,0.,0.,0.,0.);
#4860=DIMENSIONAL_EXPONENTS(0.,0.,0.,0.,0.,0.,0.);
#4870=DIMENSIONAL_EXPONENTS(0.,0.,0.,0.,0.,0.,0.);
#4880=(LENGTH_UNIT() NAMED_UNIT(*) SI_UNIT(.MILLI.,.METRE.));
#4890=(NAMED_UNIT(*) PLANE_ANGLE_UNIT() SI_UNIT($,.RADIAN.));
#4900=(NAMED_UNIT(*) SI_UNIT($,.STERADIAN.) SOLID_ANGLE_UNIT());
#4910=(GEOMETRIC_REPRESENTATION_CONTEXT(3) 
GLOBAL_UNCERTAINTY_ASSIGNED_CONTEXT((#4920)) 
GLOBAL_UNIT_ASSIGNED_CONTEXT((#4880,#4890,#4900)) REPRESENTATION_CONTEXT
('',''));
#4920=UNCERTAINTY_MEASURE_WITH_UNIT(LENGTH_MEASURE(1.E-6),#4880,
'distance_accuracy_value','maximum gap value');
#4930=ADVANCED_BREP_SHAPE_REPRESENTATION('',(#4750,#4710),#4910);
#4940=SHAPE_DEFINITION_REPRESENTATION(#4840,#4930);
#4950=COLOUR_RGB('',0.560784339904785,0.588235318660736,
0.600000023841858);
#4960=FILL_AREA_STYLE_COLOUR('',#4950);
#4970=FILL_AREA_STYLE('',(#4960));
#4980=SURFACE_STYLE_FILL_AREA(#4970);
#4990=SURFACE_SIDE_STYLE('',(#4980));
#5000=SURFACE_STYLE_USAGE(.BOTH.,#4990);
#5010=PRESENTATION_STYLE_ASSIGNMENT((#5000));
#5020=STYLED_ITEM('',(#5010),#4710);
#5030=OVER_RIDING_STYLED_ITEM('',(#1050),#980,#5020);
#5040=OVER_RIDING_STYLED_ITEM('',(#1430),#1360,#5020);
#5050=OVER_RIDING_STYLED_ITEM('',(#1740),#1670,#5020);
#5060=OVER_RIDING_STYLED_ITEM('',(#2130),#2060,#5020);
#5070=OVER_RIDING_STYLED_ITEM('',(#2450),#2380,#5020);
#5080=OVER_RIDING_STYLED_ITEM('',(#2760),#2690,#5020);
#5090=OVER_RIDING_STYLED_ITEM('',(#3000),#2930,#5020);
#5100=OVER_RIDING_STYLED_ITEM('',(#3260),#3190,#5020);
#5110=OVER_RIDING_STYLED_ITEM('',(#3570),#3500,#5020);
#5120=OVER_RIDING_STYLED_ITEM('',(#3880),#3810,#5020);
#5130=OVER_RIDING_STYLED_ITEM('',(#4190),#4120,#5020);
#5140=OVER_RIDING_STYLED_ITEM('',(#4500),#4430,#5020);
#5150=OVER_RIDING_STYLED_ITEM('',(#4690),#4620,#5020);
#5160=DRAUGHTING_MODEL('',(#5020,#5030,#5040,#5050,#5060,#5070,#5080,
#5090,#5100,#5110,#5120,#5130,#5140,#5150),#4910);
#5170=CARTESIAN_POINT('',(-53.6700000002684,26.0428327849895,
38.1999999998349));
#5180=DIRECTION('',(1.,-3.87316820511585E-23,0.));
#5190=DIRECTION('',(3.87316820511585E-23,1.,-6.38501916534732E-12));
#5200=AXIS2_PLACEMENT_3D('',#5170,#5180,#5190);
#5210=ITEM_DEFINED_TRANSFORMATION('D-PT_6-select','',#4750,#5200);
#5220=APPLICATION_CONTEXT(' ');
#5230=APPLICATION_PROTOCOL_DEFINITION(' ','automotive_design',1998,#5220
);
#5240=PRODUCT_CONTEXT('',#5220,'mechanical');
#5250=PRODUCT_DEFINITION_CONTEXT('part definition',#5220,'design');
#5260=PRODUCT('D-PT_6-select','D-PT_6-select','',(#5240));
#5270=PRODUCT_RELATED_PRODUCT_CATEGORY('part',' ',(#5260));
#5280=PRODUCT_DEFINITION_FORMATION_WITH_SPECIFIED_SOURCE('','',#5260,
.BOUGHT.);
#5290=PRODUCT_DEFINITION('',' ',#5280,#5250);
#5300=PRODUCT_DEFINITION_SHAPE('','',#5290);
#5310=DIMENSIONAL_EXPONENTS(1.,0.,0.,0.,0.,0.,0.);
#5320=DIMENSIONAL_EXPONENTS(0.,0.,0.,0.,0.,0.,0.);
#5330=DIMENSIONAL_EXPONENTS(0.,0.,0.,0.,0.,0.,0.);
#5340=(LENGTH_UNIT() NAMED_UNIT(*) SI_UNIT(.MILLI.,.METRE.));
#5350=(NAMED_UNIT(*) PLANE_ANGLE_UNIT() SI_UNIT($,.RADIAN.));
#5360=(NAMED_UNIT(*) SI_UNIT($,.STERADIAN.) SOLID_ANGLE_UNIT());
#5370=(GEOMETRIC_REPRESENTATION_CONTEXT(3) 
GLOBAL_UNCERTAINTY_ASSIGNED_CONTEXT((#5380)) 
GLOBAL_UNIT_ASSIGNED_CONTEXT((#5340,#5350,#5360)) REPRESENTATION_CONTEXT
('',''));
#5380=UNCERTAINTY_MEASURE_WITH_UNIT(LENGTH_MEASURE(1.E-6),#5340,
'distance_accuracy_value','maximum gap value');
#5390=SHAPE_REPRESENTATION('',(#4750,#5200),#5370);
#5400=SHAPE_DEFINITION_REPRESENTATION(#5300,#5390);
#5410=(REPRESENTATION_RELATIONSHIP('','',#4930,#5390) 
REPRESENTATION_RELATIONSHIP_WITH_TRANSFORMATION(#5210) 
SHAPE_REPRESENTATION_RELATIONSHIP());
#5420=NEXT_ASSEMBLY_USAGE_OCCURRENCE('1','','D-PT_6-select',#5290,#4830,
'');
#5430=PRODUCT_DEFINITION_SHAPE('','',#5420);
#5440=CONTEXT_DEPENDENT_SHAPE_REPRESENTATION(#5410,#5430);
ENDSEC;
END-ISO-10303-21;
