ISO-10303-21;
HEADER;
FILE_DESCRIPTION(('Creo Elements/Direct Modeling STEP Export'),'2;1');
FILE_NAME(
'D:/temp/JobSpoolerServerData/JobServer Files/b6908149-d001-4a31-9439-1b
1a5c8b8dc7/work/output/model.stp','2017-10-20T15:40:26',(''),(''),
'Creo Elements/Direct Modeling STEP processor for AP214 (Solid Model)',
'Creo Elements/Direct Modeling 18.1I  14-Aug-2016 (C) Parametric Technol
ogy GmbH','');
FILE_SCHEMA(('AUTOMOTIVE_DESIGN { 1 0 10303 214 1 1 1 1 }'));
ENDSEC;
DATA;
#10=CARTESIAN_POINT('',(29.7499999964706,0.212076776375014,12.1999999999
));
#20=DIRECTION('',(1.18901425788236E-10,1.,-2.44811802202566E-22));
#30=DIRECTION('',(1.,-1.18901425788236E-10,-2.09596185642923E-12));
#40=AXIS2_PLACEMENT_3D('',#10,#20,#30);
#50=PLANE('',#40);
#60=CARTESIAN_POINT('',(12.5829296489246,0.212076778416204,12.2));
#70=DIRECTION('',(1.,-1.18901425788236E-10,0.));
#80=VECTOR('',#70,1.);
#90=LINE('',#60,#80);
#100=CARTESIAN_POINT('',(-37.950000000794,0.212076784424639,12.2));
#110=VERTEX_POINT('',#100);
#120=CARTESIAN_POINT('',(26.2184135765072,0.212076776794923,12.2));
#130=VERTEX_POINT('',#120);
#140=EDGE_CURVE('',#110,#130,#90,.T.);
#150=ORIENTED_EDGE('',*,*,#140,.F.);
#160=CARTESIAN_POINT('',(26.2184135765025,0.212076776794923,10.));
#170=DIRECTION('',(2.0959618561419E-12,-4.40112952384616E-24,1.));
#180=VECTOR('',#170,1.);
#190=LINE('',#160,#180);
#200=CARTESIAN_POINT('',(26.2184135765025,0.212076776794923,
10.0000000006157));
#210=VERTEX_POINT('',#200);
#220=EDGE_CURVE('',#210,#130,#190,.T.);
#230=ORIENTED_EDGE('',*,*,#220,.T.);
#240=CARTESIAN_POINT('',(12.5829296489246,0.212076778416204,
10.0000000006157));
#250=DIRECTION('',(-1.,1.18901425788236E-10,0.));
#260=VECTOR('',#250,1.);
#270=LINE('',#240,#260);
#280=CARTESIAN_POINT('',(-37.950000000794,0.212076784424639,
10.0000000006157));
#290=VERTEX_POINT('',#280);
#300=EDGE_CURVE('',#210,#290,#270,.T.);
#310=ORIENTED_EDGE('',*,*,#300,.F.);
#320=CARTESIAN_POINT('',(-37.950000000794,0.212076784424639,10.));
#330=DIRECTION('',(5.14067189501603E-34,2.44811802202566E-22,1.));
#340=VECTOR('',#330,1.);
#350=LINE('',#320,#340);
#360=EDGE_CURVE('',#290,#110,#350,.T.);
#370=ORIENTED_EDGE('',*,*,#360,.F.);
#380=EDGE_LOOP('',(#370,#310,#230,#150));
#390=FACE_OUTER_BOUND('',#380,.T.);
#400=ADVANCED_FACE('',(#390),#50,.F.);
#410=COLOUR_RGB('',0.560784339904785,0.588235318660736,0.600000023841858
);
#420=FILL_AREA_STYLE_COLOUR('',#410);
#430=FILL_AREA_STYLE('',(#420));
#440=SURFACE_STYLE_FILL_AREA(#430);
#450=SURFACE_SIDE_STYLE('',(#440));
#460=SURFACE_STYLE_USAGE(.BOTH.,#450);
#470=PRESENTATION_STYLE_ASSIGNMENT((#460));
#480=CARTESIAN_POINT('',(28.493396367503,42.8120767680858,
12.1999999999027));
#490=DIRECTION('',(-0.984807753053063,-0.173648177435231,
2.06411948631423E-12));
#500=DIRECTION('',(-0.173648177435231,0.984807753053063,
3.63959956347034E-13));
#510=AXIS2_PLACEMENT_3D('',#480,#490,#500);
#520=PLANE('',#510);
#530=CARTESIAN_POINT('',(28.4933963665419,42.8120767735105,10.));
#540=DIRECTION('',(2.09596185642923E-12,-4.40087359347465E-24,1.));
#550=VECTOR('',#540,1.);
#560=LINE('',#530,#550);
#570=CARTESIAN_POINT('',(28.4933963665419,42.8120767735105,
9.99999999990267));
#580=VERTEX_POINT('',#570);
#590=CARTESIAN_POINT('',(28.4933963665465,42.8120767735105,12.2));
#600=VERTEX_POINT('',#590);
#610=EDGE_CURVE('',#580,#600,#560,.T.);
#620=ORIENTED_EDGE('',*,*,#610,.T.);
#630=CARTESIAN_POINT('',(29.4664304662249,37.2937261665441,
10.0000000006157));
#640=DIRECTION('',(0.173648177435231,-0.984807753053063,0.));
#650=VECTOR('',#640,1.);
#660=LINE('',#630,#650);
#670=CARTESIAN_POINT('',(29.7500000006839,35.685523418931,
9.99999999990004));
#680=VERTEX_POINT('',#670);
#690=EDGE_CURVE('',#580,#680,#660,.T.);
#700=ORIENTED_EDGE('',*,*,#690,.F.);
#710=CARTESIAN_POINT('',(29.7500000006839,35.685523418931,10.));
#720=DIRECTION('',(2.09596185642923E-12,-4.40094967487707E-24,1.));
#730=VECTOR('',#720,1.);
#740=LINE('',#710,#730);
#750=CARTESIAN_POINT('',(29.7500000006885,35.685523418931,12.2));
#760=VERTEX_POINT('',#750);
#770=EDGE_CURVE('',#680,#760,#740,.T.);
#780=ORIENTED_EDGE('',*,*,#770,.F.);
#790=CARTESIAN_POINT('',(29.4664304662249,37.2937261665441,12.2));
#800=DIRECTION('',(-0.173648177435231,0.984807753053063,0.));
#810=VECTOR('',#800,1.);
#820=LINE('',#790,#810);
#830=EDGE_CURVE('',#760,#600,#820,.T.);
#840=ORIENTED_EDGE('',*,*,#830,.F.);
#850=EDGE_LOOP('',(#840,#780,#700,#620));
#860=FACE_OUTER_BOUND('',#850,.T.);
#870=ADVANCED_FACE('',(#860),#520,.F.);
#880=COLOUR_RGB('',0.560784339904785,0.588235318660736,0.600000023841858
);
#890=FILL_AREA_STYLE_COLOUR('',#880);
#900=FILL_AREA_STYLE('',(#890));
#910=SURFACE_STYLE_FILL_AREA(#900);
#920=SURFACE_SIDE_STYLE('',(#910));
#930=SURFACE_STYLE_USAGE(.BOTH.,#920);
#940=PRESENTATION_STYLE_ASSIGNMENT((#930));
#950=CARTESIAN_POINT('',(-4.23403992841611,16.0620768965038,12.2));
#960=DIRECTION('',(-0.,0.,1.));
#970=DIRECTION('',(1.,-2.09977624885101E-12,0.));
#980=AXIS2_PLACEMENT_3D('',#950,#960,#970);
#990=PLANE('',#980);
#1000=ORIENTED_EDGE('',*,*,#830,.T.);
#1010=CARTESIAN_POINT('',(29.7500000008751,37.2937261665441,12.2));
#1020=DIRECTION('',(1.18901425788236E-10,1.,0.));
#1030=VECTOR('',#1020,1.);
#1040=LINE('',#1010,#1030);
#1050=CARTESIAN_POINT('',(29.7499999992845,23.9050088479835,12.2));
#1060=VERTEX_POINT('',#1050);
#1070=EDGE_CURVE('',#1060,#760,#1040,.T.);
#1080=ORIENTED_EDGE('',*,*,#1070,.T.);
#1090=CARTESIAN_POINT('',(44.0499999999019,14.7120767813171,12.2));
#1100=DIRECTION('',(0.,0.,1.));
#1110=DIRECTION('',(1.,-4.19733205165281E-12,0.));
#1120=AXIS2_PLACEMENT_3D('',#1090,#1100,#1110);
#1130=CIRCLE('',#1120,17.);
#1140=CARTESIAN_POINT('',(29.749999997097,5.51914471805345,12.2));
#1150=VERTEX_POINT('',#1140);
#1160=EDGE_CURVE('',#1060,#1150,#1130,.T.);
#1170=ORIENTED_EDGE('',*,*,#1160,.F.);
#1180=CARTESIAN_POINT('',(29.7500000008797,37.2937261665441,12.2));
#1190=DIRECTION('',(1.18901425788236E-10,1.,0.));
#1200=VECTOR('',#1190,1.);
#1210=LINE('',#1180,#1200);
#1220=CARTESIAN_POINT('',(29.7499999968284,3.22110868986844,12.2));
#1230=VERTEX_POINT('',#1220);
#1240=EDGE_CURVE('',#1230,#1150,#1210,.T.);
#1250=ORIENTED_EDGE('',*,*,#1240,.T.);
#1260=CARTESIAN_POINT('',(12.5829296489246,-11.4058199429928,12.2));
#1270=DIRECTION('',(0.761174762413487,0.648546822569328,0.));
#1280=VECTOR('',#1270,1.);
#1290=LINE('',#1260,#1280);
#1300=EDGE_CURVE('',#130,#1230,#1290,.T.);
#1310=ORIENTED_EDGE('',*,*,#1300,.T.);
#1320=ORIENTED_EDGE('',*,*,#140,.T.);
#1330=CARTESIAN_POINT('',(-37.9500000007162,37.2937261665441,12.2));
#1340=DIRECTION('',(-2.09977624885101E-12,-1.,0.));
#1350=VECTOR('',#1340,1.);
#1360=LINE('',#1330,#1350);
#1370=CARTESIAN_POINT('',(-37.9500000007768,8.41207677768167,12.2));
#1380=VERTEX_POINT('',#1370);
#1390=EDGE_CURVE('',#1380,#110,#1360,.T.);
#1400=ORIENTED_EDGE('',*,*,#1390,.T.);
#1410=CARTESIAN_POINT('',(-48.6353872166166,16.1620767807484,12.2));
#1420=DIRECTION('',(0.,0.,1.));
#1430=DIRECTION('',(1.,-2.09977624885101E-12,0.));
#1440=AXIS2_PLACEMENT_3D('',#1410,#1420,#1430);
#1450=CIRCLE('',#1440,13.1999999999987);
#1460=CARTESIAN_POINT('',(-37.9500000007443,23.9120767837702,12.2));
#1470=VERTEX_POINT('',#1460);
#1480=EDGE_CURVE('',#1380,#1470,#1450,.T.);
#1490=ORIENTED_EDGE('',*,*,#1480,.F.);
#1500=CARTESIAN_POINT('',(-37.9500000007162,37.2937261665441,12.2));
#1510=DIRECTION('',(-2.09977624885101E-12,-1.,0.));
#1520=VECTOR('',#1510,1.);
#1530=LINE('',#1500,#1520);
#1540=CARTESIAN_POINT('',(-37.9500000007196,35.6855234246446,12.2));
#1550=VERTEX_POINT('',#1540);
#1560=EDGE_CURVE('',#1550,#1470,#1530,.T.);
#1570=ORIENTED_EDGE('',*,*,#1560,.T.);
#1580=CARTESIAN_POINT('',(-37.6664304670628,37.2937261665441,12.2));
#1590=DIRECTION('',(-0.173648177554394,-0.984807753032051,0.));
#1600=VECTOR('',#1590,1.);
#1610=LINE('',#1580,#1600);
#1620=CARTESIAN_POINT('',(-36.6933963666718,42.8120767736473,12.2));
#1630=VERTEX_POINT('',#1620);
#1640=EDGE_CURVE('',#1630,#1550,#1610,.T.);
#1650=ORIENTED_EDGE('',*,*,#1640,.T.);
#1660=CARTESIAN_POINT('',(12.5829296489246,42.8120767735439,12.2));
#1670=DIRECTION('',(-1.,2.09977624885101E-12,0.));
#1680=VECTOR('',#1670,1.);
#1690=LINE('',#1660,#1680);
#1700=EDGE_CURVE('',#600,#1630,#1690,.T.);
#1710=ORIENTED_EDGE('',*,*,#1700,.T.);
#1720=EDGE_LOOP('',(#1710,#1650,#1570,#1490,#1400,#1320,#1310,#1250,
#1170,#1080,#1000));
#1730=FACE_OUTER_BOUND('',#1720,.T.);
#1740=ADVANCED_FACE('',(#1730),#990,.T.);
#1750=COLOUR_RGB('',0.560784339904785,0.588235318660736,
0.600000023841858);
#1760=FILL_AREA_STYLE_COLOUR('',#1750);
#1770=FILL_AREA_STYLE('',(#1760));
#1780=SURFACE_STYLE_FILL_AREA(#1770);
#1790=SURFACE_SIDE_STYLE('',(#1780));
#1800=SURFACE_STYLE_USAGE(.BOTH.,#1790);
#1810=PRESENTATION_STYLE_ASSIGNMENT((#1800));
#1820=CARTESIAN_POINT('',(44.0499999999019,14.7120767813171,
9.99999999995715));
#1830=DIRECTION('',(-8.07793566946316E-28,4.8962262936908E-22,1.));
#1840=DIRECTION('',(1.,-4.19733205165281E-12,-4.03896783473158E-28));
#1850=AXIS2_PLACEMENT_3D('',#1820,#1830,#1840);
#1860=CYLINDRICAL_SURFACE('',#1850,17.);
#1870=CARTESIAN_POINT('',(29.7499999992831,23.9050088479814,
9.99999999995715));
#1880=DIRECTION('',(-8.07793566946316E-28,4.8962262936908E-22,1.));
#1890=VECTOR('',#1880,1.);
#1900=LINE('',#1870,#1890);
#1910=CARTESIAN_POINT('',(29.7499999992831,23.9050088479814,
10.0000000006157));
#1920=VERTEX_POINT('',#1910);
#1930=EDGE_CURVE('',#1920,#1060,#1900,.T.);
#1940=ORIENTED_EDGE('',*,*,#1930,.T.);
#1950=CARTESIAN_POINT('',(44.0499999999019,14.7120767813171,
10.0000000006157));
#1960=DIRECTION('',(0.,0.,1.));
#1970=DIRECTION('',(1.,-4.19733205165281E-12,0.));
#1980=AXIS2_PLACEMENT_3D('',#1950,#1960,#1970);
#1990=CIRCLE('',#1980,17.);
#2000=CARTESIAN_POINT('',(29.749999997097,5.51914471805345,
10.0000000006157));
#2010=VERTEX_POINT('',#2000);
#2020=EDGE_CURVE('',#1920,#2010,#1990,.T.);
#2030=ORIENTED_EDGE('',*,*,#2020,.F.);
#2040=CARTESIAN_POINT('',(29.749999997097,5.51914471805344,
9.99999999995715));
#2050=DIRECTION('',(-8.07793566946316E-28,4.8962262936908E-22,1.));
#2060=VECTOR('',#2050,1.);
#2070=LINE('',#2040,#2060);
#2080=EDGE_CURVE('',#2010,#1150,#2070,.T.);
#2090=ORIENTED_EDGE('',*,*,#2080,.F.);
#2100=ORIENTED_EDGE('',*,*,#1160,.T.);
#2110=EDGE_LOOP('',(#2100,#2090,#2030,#1940));
#2120=FACE_OUTER_BOUND('',#2110,.T.);
#2130=ADVANCED_FACE('',(#2120),#1860,.F.);
#2140=COLOUR_RGB('',0.560784339904785,0.588235318660736,
0.600000023841858);
#2150=FILL_AREA_STYLE_COLOUR('',#2140);
#2160=FILL_AREA_STYLE('',(#2150));
#2170=SURFACE_STYLE_FILL_AREA(#2160);
#2180=SURFACE_SIDE_STYLE('',(#2170));
#2190=SURFACE_STYLE_USAGE(.BOTH.,#2180);
#2200=PRESENTATION_STYLE_ASSIGNMENT((#2190));
#2210=CARTESIAN_POINT('',(-48.6353872166166,16.1620767807484,12.2));
#2220=DIRECTION('',(0.,0.,1.));
#2230=DIRECTION('',(1.,-2.09977624885101E-12,0.));
#2240=AXIS2_PLACEMENT_3D('',#2210,#2220,#2230);
#2250=CYLINDRICAL_SURFACE('',#2240,13.1999999999987);
#2260=ORIENTED_EDGE('',*,*,#1480,.T.);
#2270=CARTESIAN_POINT('',(-37.9500000007768,8.41207677768167,12.2));
#2280=DIRECTION('',(0.,0.,1.));
#2290=VECTOR('',#2280,1.);
#2300=LINE('',#2270,#2290);
#2310=CARTESIAN_POINT('',(-37.9500000007768,8.41207677768167,
10.0000000006157));
#2320=VERTEX_POINT('',#2310);
#2330=EDGE_CURVE('',#2320,#1380,#2300,.T.);
#2340=ORIENTED_EDGE('',*,*,#2330,.T.);
#2350=CARTESIAN_POINT('',(-48.6353872166166,16.1620767807484,
10.0000000006157));
#2360=DIRECTION('',(0.,0.,1.));
#2370=DIRECTION('',(1.,-2.09977624885101E-12,0.));
#2380=AXIS2_PLACEMENT_3D('',#2350,#2360,#2370);
#2390=CIRCLE('',#2380,13.1999999999987);
#2400=CARTESIAN_POINT('',(-37.9500000007443,23.9120767837702,
10.0000000006157));
#2410=VERTEX_POINT('',#2400);
#2420=EDGE_CURVE('',#2320,#2410,#2390,.T.);
#2430=ORIENTED_EDGE('',*,*,#2420,.F.);
#2440=CARTESIAN_POINT('',(-37.9500000007443,23.9120767837702,12.2));
#2450=DIRECTION('',(0.,0.,1.));
#2460=VECTOR('',#2450,1.);
#2470=LINE('',#2440,#2460);
#2480=EDGE_CURVE('',#2410,#1470,#2470,.T.);
#2490=ORIENTED_EDGE('',*,*,#2480,.F.);
#2500=EDGE_LOOP('',(#2490,#2430,#2340,#2260));
#2510=FACE_OUTER_BOUND('',#2500,.T.);
#2520=ADVANCED_FACE('',(#2510),#2250,.F.);
#2530=COLOUR_RGB('',0.560784339904785,0.588235318660736,
0.600000023841858);
#2540=FILL_AREA_STYLE_COLOUR('',#2530);
#2550=FILL_AREA_STYLE('',(#2540));
#2560=SURFACE_STYLE_FILL_AREA(#2550);
#2570=SURFACE_SIDE_STYLE('',(#2560));
#2580=SURFACE_STYLE_USAGE(.BOTH.,#2570);
#2590=PRESENTATION_STYLE_ASSIGNMENT((#2580));
#2600=CARTESIAN_POINT('',(29.7499999974456,8.41207677196809,
12.1999999999));
#2610=DIRECTION('',(-1.,1.18901425788236E-10,2.09596185642923E-12));
#2620=DIRECTION('',(1.18901425788236E-10,1.,-2.44811802202566E-22));
#2630=AXIS2_PLACEMENT_3D('',#2600,#2610,#2620);
#2640=PLANE('',#2630);
#2650=ORIENTED_EDGE('',*,*,#2080,.T.);
#2660=CARTESIAN_POINT('',(29.7500000008797,37.2937261665441,
10.0000000006157));
#2670=DIRECTION('',(-1.18901425788236E-10,-1.,0.));
#2680=VECTOR('',#2670,1.);
#2690=LINE('',#2660,#2680);
#2700=CARTESIAN_POINT('',(29.7499999968238,3.22110868986844,
10.0000000006157));
#2710=VERTEX_POINT('',#2700);
#2720=EDGE_CURVE('',#2010,#2710,#2690,.T.);
#2730=ORIENTED_EDGE('',*,*,#2720,.F.);
#2740=CARTESIAN_POINT('',(29.7499999968238,3.22110868986844,10.));
#2750=DIRECTION('',(2.09596185642923E-12,2.40410657952522E-22,1.));
#2760=VECTOR('',#2750,1.);
#2770=LINE('',#2740,#2760);
#2780=EDGE_CURVE('',#2710,#1230,#2770,.T.);
#2790=ORIENTED_EDGE('',*,*,#2780,.F.);
#2800=ORIENTED_EDGE('',*,*,#1240,.F.);
#2810=EDGE_LOOP('',(#2800,#2790,#2730,#2650));
#2820=FACE_OUTER_BOUND('',#2810,.T.);
#2830=ADVANCED_FACE('',(#2820),#2640,.F.);
#2840=COLOUR_RGB('',0.560784339904785,0.588235318660736,
0.600000023841858);
#2850=FILL_AREA_STYLE_COLOUR('',#2840);
#2860=FILL_AREA_STYLE('',(#2850));
#2870=SURFACE_STYLE_FILL_AREA(#2860);
#2880=SURFACE_SIDE_STYLE('',(#2870));
#2890=SURFACE_STYLE_USAGE(.BOTH.,#2880);
#2900=PRESENTATION_STYLE_ASSIGNMENT((#2890));
#2910=CARTESIAN_POINT('',(20.8466306701318,-4.36486521798734,
9.77999759987677));
#2920=DIRECTION('',(-0.648546822569328,0.761174762413487,
1.35932940203069E-12));
#2930=DIRECTION('',(0.761174762413487,0.648546822569328,
-1.5953932680924E-12));
#2940=AXIS2_PLACEMENT_3D('',#2910,#2920,#2930);
#2950=PLANE('',#2940);
#2960=CARTESIAN_POINT('',(12.5829296489246,-11.4058199429928,
10.0000000006157));
#2970=DIRECTION('',(-0.761174762413487,-0.648546822569328,0.));
#2980=VECTOR('',#2970,1.);
#2990=LINE('',#2960,#2980);
#3000=EDGE_CURVE('',#2710,#210,#2990,.T.);
#3010=ORIENTED_EDGE('',*,*,#3000,.F.);
#3020=ORIENTED_EDGE('',*,*,#220,.F.);
#3030=ORIENTED_EDGE('',*,*,#1300,.F.);
#3040=ORIENTED_EDGE('',*,*,#2780,.T.);
#3050=EDGE_LOOP('',(#3040,#3030,#3020,#3010));
#3060=FACE_OUTER_BOUND('',#3050,.T.);
#3070=ADVANCED_FACE('',(#3060),#2950,.F.);
#3080=COLOUR_RGB('',0.560784339904785,0.588235318660736,
0.600000023841858);
#3090=FILL_AREA_STYLE_COLOUR('',#3080);
#3100=FILL_AREA_STYLE('',(#3090));
#3110=SURFACE_STYLE_FILL_AREA(#3100);
#3120=SURFACE_SIDE_STYLE('',(#3110));
#3130=SURFACE_STYLE_USAGE(.BOTH.,#3120);
#3140=PRESENTATION_STYLE_ASSIGNMENT((#3130));
#3150=CARTESIAN_POINT('',(-37.9500000007196,35.6855234246446,12.2));
#3160=DIRECTION('',(-1.,2.09977624885101E-12,0.));
#3170=DIRECTION('',(2.09977624885101E-12,1.,0.));
#3180=AXIS2_PLACEMENT_3D('',#3150,#3160,#3170);
#3190=PLANE('',#3180);
#3200=ORIENTED_EDGE('',*,*,#1560,.F.);
#3210=ORIENTED_EDGE('',*,*,#2480,.T.);
#3220=CARTESIAN_POINT('',(-37.9500000007162,37.2937261665441,
10.0000000006157));
#3230=DIRECTION('',(2.09977624885101E-12,1.,0.));
#3240=VECTOR('',#3230,1.);
#3250=LINE('',#3220,#3240);
#3260=CARTESIAN_POINT('',(-37.9500000007196,35.6855234246446,
10.0000000006157));
#3270=VERTEX_POINT('',#3260);
#3280=EDGE_CURVE('',#2410,#3270,#3250,.T.);
#3290=ORIENTED_EDGE('',*,*,#3280,.F.);
#3300=CARTESIAN_POINT('',(-37.9500000007196,35.6855234246446,10.));
#3310=DIRECTION('',(0.,0.,-1.));
#3320=VECTOR('',#3310,1.);
#3330=LINE('',#3300,#3320);
#3340=EDGE_CURVE('',#1550,#3270,#3330,.T.);
#3350=ORIENTED_EDGE('',*,*,#3340,.T.);
#3360=EDGE_LOOP('',(#3350,#3290,#3210,#3200));
#3370=FACE_OUTER_BOUND('',#3360,.T.);
#3380=ADVANCED_FACE('',(#3370),#3190,.T.);
#3390=COLOUR_RGB('',0.560784339904785,0.588235318660736,
0.600000023841858);
#3400=FILL_AREA_STYLE_COLOUR('',#3390);
#3410=FILL_AREA_STYLE('',(#3400));
#3420=SURFACE_STYLE_FILL_AREA(#3410);
#3430=SURFACE_SIDE_STYLE('',(#3420));
#3440=SURFACE_STYLE_USAGE(.BOTH.,#3430);
#3450=PRESENTATION_STYLE_ASSIGNMENT((#3440));
#3460=CARTESIAN_POINT('',(-36.6933963666718,42.8120767736473,12.2));
#3470=DIRECTION('',(-0.984807753032051,0.173648177554394,0.));
#3480=DIRECTION('',(0.173648177554394,0.984807753032051,0.));
#3490=AXIS2_PLACEMENT_3D('',#3460,#3470,#3480);
#3500=PLANE('',#3490);
#3510=ORIENTED_EDGE('',*,*,#1640,.F.);
#3520=ORIENTED_EDGE('',*,*,#3340,.F.);
#3530=CARTESIAN_POINT('',(-37.6664304670628,37.2937261665441,
10.0000000006157));
#3540=DIRECTION('',(0.173648177554394,0.984807753032051,0.));
#3550=VECTOR('',#3540,1.);
#3560=LINE('',#3530,#3550);
#3570=CARTESIAN_POINT('',(-36.6933963666718,42.8120767736473,
10.0000000006157));
#3580=VERTEX_POINT('',#3570);
#3590=EDGE_CURVE('',#3270,#3580,#3560,.T.);
#3600=ORIENTED_EDGE('',*,*,#3590,.F.);
#3610=CARTESIAN_POINT('',(-36.6933963666718,42.8120767736473,10.));
#3620=DIRECTION('',(0.,0.,1.));
#3630=VECTOR('',#3620,1.);
#3640=LINE('',#3610,#3630);
#3650=EDGE_CURVE('',#3580,#1630,#3640,.T.);
#3660=ORIENTED_EDGE('',*,*,#3650,.F.);
#3670=EDGE_LOOP('',(#3660,#3600,#3520,#3510));
#3680=FACE_OUTER_BOUND('',#3670,.T.);
#3690=ADVANCED_FACE('',(#3680),#3500,.T.);
#3700=COLOUR_RGB('',0.560784339904785,0.588235318660736,
0.600000023841858);
#3710=FILL_AREA_STYLE_COLOUR('',#3700);
#3720=FILL_AREA_STYLE('',(#3710));
#3730=SURFACE_STYLE_FILL_AREA(#3720);
#3740=SURFACE_SIDE_STYLE('',(#3730));
#3750=SURFACE_STYLE_USAGE(.BOTH.,#3740);
#3760=PRESENTATION_STYLE_ASSIGNMENT((#3750));
#3770=CARTESIAN_POINT('',(-37.9500000007768,8.41207677768167,12.2));
#3780=DIRECTION('',(-1.,2.09977624885101E-12,0.));
#3790=DIRECTION('',(2.09977624885101E-12,1.,0.));
#3800=AXIS2_PLACEMENT_3D('',#3770,#3780,#3790);
#3810=PLANE('',#3800);
#3820=ORIENTED_EDGE('',*,*,#1390,.F.);
#3830=ORIENTED_EDGE('',*,*,#360,.T.);
#3840=CARTESIAN_POINT('',(-37.9500000007162,37.2937261665441,
10.0000000006157));
#3850=DIRECTION('',(2.09977624885101E-12,1.,0.));
#3860=VECTOR('',#3850,1.);
#3870=LINE('',#3840,#3860);
#3880=EDGE_CURVE('',#290,#2320,#3870,.T.);
#3890=ORIENTED_EDGE('',*,*,#3880,.F.);
#3900=ORIENTED_EDGE('',*,*,#2330,.F.);
#3910=EDGE_LOOP('',(#3900,#3890,#3830,#3820));
#3920=FACE_OUTER_BOUND('',#3910,.T.);
#3930=ADVANCED_FACE('',(#3920),#3810,.T.);
#3940=COLOUR_RGB('',0.560784339904785,0.588235318660736,
0.600000023841858);
#3950=FILL_AREA_STYLE_COLOUR('',#3940);
#3960=FILL_AREA_STYLE('',(#3950));
#3970=SURFACE_STYLE_FILL_AREA(#3960);
#3980=SURFACE_SIDE_STYLE('',(#3970));
#3990=SURFACE_STYLE_USAGE(.BOTH.,#3980);
#4000=PRESENTATION_STYLE_ASSIGNMENT((#3990));
#4010=CARTESIAN_POINT('',(29.7500000006885,35.685523418931,12.1999999999
));
#4020=DIRECTION('',(-1.,1.18901425788236E-10,2.09596185642923E-12));
#4030=DIRECTION('',(1.18901425788236E-10,1.,-2.44811802202566E-22));
#4040=AXIS2_PLACEMENT_3D('',#4010,#4020,#4030);
#4050=PLANE('',#4040);
#4060=ORIENTED_EDGE('',*,*,#770,.T.);
#4070=CARTESIAN_POINT('',(29.7500000008751,37.2937261665441,
10.0000000006157));
#4080=DIRECTION('',(-1.18901425788236E-10,-1.,0.));
#4090=VECTOR('',#4080,1.);
#4100=LINE('',#4070,#4090);
#4110=EDGE_CURVE('',#680,#1920,#4100,.T.);
#4120=ORIENTED_EDGE('',*,*,#4110,.F.);
#4130=ORIENTED_EDGE('',*,*,#1930,.F.);
#4140=ORIENTED_EDGE('',*,*,#1070,.F.);
#4150=EDGE_LOOP('',(#4140,#4130,#4120,#4060));
#4160=FACE_OUTER_BOUND('',#4150,.T.);
#4170=ADVANCED_FACE('',(#4160),#4050,.F.);
#4180=COLOUR_RGB('',0.560784339904785,0.588235318660736,
0.600000023841858);
#4190=FILL_AREA_STYLE_COLOUR('',#4180);
#4200=FILL_AREA_STYLE('',(#4190));
#4210=SURFACE_STYLE_FILL_AREA(#4200);
#4220=SURFACE_SIDE_STYLE('',(#4210));
#4230=SURFACE_STYLE_USAGE(.BOTH.,#4220);
#4240=PRESENTATION_STYLE_ASSIGNMENT((#4230));
#4250=CARTESIAN_POINT('',(-1.59615242450895,42.8120767735736,12.1));
#4260=DIRECTION('',(2.09977624885101E-12,1.,0.));
#4270=DIRECTION('',(1.,-2.09977624885101E-12,0.));
#4280=AXIS2_PLACEMENT_3D('',#4250,#4260,#4270);
#4290=PLANE('',#4280);
#4300=ORIENTED_EDGE('',*,*,#3650,.T.);
#4310=CARTESIAN_POINT('',(12.5829296489246,42.8120767735439,
10.0000000006157));
#4320=DIRECTION('',(1.,-2.09977624885101E-12,0.));
#4330=VECTOR('',#4320,1.);
#4340=LINE('',#4310,#4330);
#4350=EDGE_CURVE('',#3580,#580,#4340,.T.);
#4360=ORIENTED_EDGE('',*,*,#4350,.F.);
#4370=ORIENTED_EDGE('',*,*,#610,.F.);
#4380=ORIENTED_EDGE('',*,*,#1700,.F.);
#4390=EDGE_LOOP('',(#4380,#4370,#4360,#4300));
#4400=FACE_OUTER_BOUND('',#4390,.T.);
#4410=ADVANCED_FACE('',(#4400),#4290,.T.);
#4420=COLOUR_RGB('',0.560784339904785,0.588235318660736,
0.600000023841858);
#4430=FILL_AREA_STYLE_COLOUR('',#4420);
#4440=FILL_AREA_STYLE('',(#4430));
#4450=SURFACE_STYLE_FILL_AREA(#4440);
#4460=SURFACE_SIDE_STYLE('',(#4450));
#4470=SURFACE_STYLE_USAGE(.BOTH.,#4460);
#4480=PRESENTATION_STYLE_ASSIGNMENT((#4470));
#4490=CARTESIAN_POINT('',(-1.42454402668201,28.8698277751977,
10.0000000006157));
#4500=DIRECTION('',(0.,0.,-1.));
#4510=DIRECTION('',(-1.,2.09977624885101E-12,0.));
#4520=AXIS2_PLACEMENT_3D('',#4490,#4500,#4510);
#4530=PLANE('',#4520);
#4540=ORIENTED_EDGE('',*,*,#3590,.T.);
#4550=ORIENTED_EDGE('',*,*,#3280,.T.);
#4560=ORIENTED_EDGE('',*,*,#2420,.T.);
#4570=ORIENTED_EDGE('',*,*,#3880,.T.);
#4580=ORIENTED_EDGE('',*,*,#300,.T.);
#4590=ORIENTED_EDGE('',*,*,#3000,.T.);
#4600=ORIENTED_EDGE('',*,*,#2720,.T.);
#4610=ORIENTED_EDGE('',*,*,#2020,.T.);
#4620=ORIENTED_EDGE('',*,*,#4110,.T.);
#4630=ORIENTED_EDGE('',*,*,#690,.T.);
#4640=ORIENTED_EDGE('',*,*,#4350,.T.);
#4650=EDGE_LOOP('',(#4640,#4630,#4620,#4610,#4600,#4590,#4580,#4570,
#4560,#4550,#4540));
#4660=FACE_OUTER_BOUND('',#4650,.T.);
#4670=ADVANCED_FACE('',(#4660),#4530,.T.);
#4680=COLOUR_RGB('',0.560784339904785,0.588235318660736,
0.600000023841858);
#4690=FILL_AREA_STYLE_COLOUR('',#4680);
#4700=FILL_AREA_STYLE('',(#4690));
#4710=SURFACE_STYLE_FILL_AREA(#4700);
#4720=SURFACE_SIDE_STYLE('',(#4710));
#4730=SURFACE_STYLE_USAGE(.BOTH.,#4720);
#4740=PRESENTATION_STYLE_ASSIGNMENT((#4730));
#4750=CLOSED_SHELL('',(#4410,#4670,#400,#870,#1740,#2130,#2520,#2830,
#3070,#3380,#3690,#3930,#4170));
#4760=MANIFOLD_SOLID_BREP('',#4750);
#4770=CARTESIAN_POINT('',(0.,0.,0.));
#4780=DIRECTION('',(0.,0.,1.));
#4790=DIRECTION('',(1.,0.,0.));
#4800=AXIS2_PLACEMENT_3D('',#4770,#4780,#4790);
#4810=APPLICATION_CONTEXT(' ');
#4820=APPLICATION_PROTOCOL_DEFINITION(' ','automotive_design',1998,#4810
);
#4830=PRODUCT_CONTEXT('',#4810,'mechanical');
#4840=PRODUCT_DEFINITION_CONTEXT('part definition',#4810,'design');
#4850=PRODUCT('D-PT-10-SELECT','D-PT-10-SELECT','',(#4830));
#4860=PRODUCT_RELATED_PRODUCT_CATEGORY('part',' ',(#4850));
#4870=PRODUCT_DEFINITION_FORMATION_WITH_SPECIFIED_SOURCE('','',#4850,
.BOUGHT.);
#4880=PRODUCT_DEFINITION('',' ',#4870,#4840);
#4890=PRODUCT_DEFINITION_SHAPE('','',#4880);
#4900=DIMENSIONAL_EXPONENTS(1.,0.,0.,0.,0.,0.,0.);
#4910=DIMENSIONAL_EXPONENTS(0.,0.,0.,0.,0.,0.,0.);
#4920=DIMENSIONAL_EXPONENTS(0.,0.,0.,0.,0.,0.,0.);
#4930=(LENGTH_UNIT() NAMED_UNIT(*) SI_UNIT(.MILLI.,.METRE.));
#4940=(NAMED_UNIT(*) PLANE_ANGLE_UNIT() SI_UNIT($,.RADIAN.));
#4950=(NAMED_UNIT(*) SI_UNIT($,.STERADIAN.) SOLID_ANGLE_UNIT());
#4960=(GEOMETRIC_REPRESENTATION_CONTEXT(3) 
GLOBAL_UNCERTAINTY_ASSIGNED_CONTEXT((#4970)) 
GLOBAL_UNIT_ASSIGNED_CONTEXT((#4930,#4940,#4950)) REPRESENTATION_CONTEXT
('',''));
#4970=UNCERTAINTY_MEASURE_WITH_UNIT(LENGTH_MEASURE(1.E-6),#4930,
'distance_accuracy_value','maximum gap value');
#4980=ADVANCED_BREP_SHAPE_REPRESENTATION('',(#4800,#4760),#4960);
#4990=SHAPE_DEFINITION_REPRESENTATION(#4890,#4980);
#5000=COLOUR_RGB('',0.560784339904785,0.588235318660736,
0.600000023841858);
#5010=FILL_AREA_STYLE_COLOUR('',#5000);
#5020=FILL_AREA_STYLE('',(#5010));
#5030=SURFACE_STYLE_FILL_AREA(#5020);
#5040=SURFACE_SIDE_STYLE('',(#5030));
#5050=SURFACE_STYLE_USAGE(.BOTH.,#5040);
#5060=PRESENTATION_STYLE_ASSIGNMENT((#5050));
#5070=STYLED_ITEM('',(#5060),#4760);
#5080=OVER_RIDING_STYLED_ITEM('',(#470),#400,#5070);
#5090=OVER_RIDING_STYLED_ITEM('',(#940),#870,#5070);
#5100=OVER_RIDING_STYLED_ITEM('',(#1810),#1740,#5070);
#5110=OVER_RIDING_STYLED_ITEM('',(#2200),#2130,#5070);
#5120=OVER_RIDING_STYLED_ITEM('',(#2590),#2520,#5070);
#5130=OVER_RIDING_STYLED_ITEM('',(#2900),#2830,#5070);
#5140=OVER_RIDING_STYLED_ITEM('',(#3140),#3070,#5070);
#5150=OVER_RIDING_STYLED_ITEM('',(#3450),#3380,#5070);
#5160=OVER_RIDING_STYLED_ITEM('',(#3760),#3690,#5070);
#5170=OVER_RIDING_STYLED_ITEM('',(#4000),#3930,#5070);
#5180=OVER_RIDING_STYLED_ITEM('',(#4240),#4170,#5070);
#5190=OVER_RIDING_STYLED_ITEM('',(#4480),#4410,#5070);
#5200=OVER_RIDING_STYLED_ITEM('',(#4740),#4670,#5070);
#5210=DRAUGHTING_MODEL('',(#5070,#5080,#5090,#5100,#5110,#5120,#5130,
#5140,#5150,#5160,#5170,#5180,#5190,#5200),#4960);
#5220=CARTESIAN_POINT('',(-10.0000000006143,37.9500000008193,
-0.212076779976471));
#5230=DIRECTION('',(1.,-2.77554996970179E-16,6.38567142112948E-12));
#5240=DIRECTION('',(2.7755423770297E-16,1.,1.18901703343954E-10));
#5250=AXIS2_PLACEMENT_3D('',#5220,#5230,#5240);
#5260=ITEM_DEFINED_TRANSFORMATION('D-PT-10-SELECT','',#4800,#5250);
#5270=APPLICATION_CONTEXT(' ');
#5280=APPLICATION_PROTOCOL_DEFINITION(' ','automotive_design',1998,#5270
);
#5290=PRODUCT_CONTEXT('',#5270,'mechanical');
#5300=PRODUCT_DEFINITION_CONTEXT('part definition',#5270,'design');
#5310=PRODUCT('D-PT-10-SELECT','D-PT-10-SELECT','',(#5290));
#5320=PRODUCT_RELATED_PRODUCT_CATEGORY('part',' ',(#5310));
#5330=PRODUCT_DEFINITION_FORMATION_WITH_SPECIFIED_SOURCE('','',#5310,
.BOUGHT.);
#5340=PRODUCT_DEFINITION('',' ',#5330,#5300);
#5350=PRODUCT_DEFINITION_SHAPE('','',#5340);
#5360=DIMENSIONAL_EXPONENTS(1.,0.,0.,0.,0.,0.,0.);
#5370=DIMENSIONAL_EXPONENTS(0.,0.,0.,0.,0.,0.,0.);
#5380=DIMENSIONAL_EXPONENTS(0.,0.,0.,0.,0.,0.,0.);
#5390=(LENGTH_UNIT() NAMED_UNIT(*) SI_UNIT(.MILLI.,.METRE.));
#5400=(NAMED_UNIT(*) PLANE_ANGLE_UNIT() SI_UNIT($,.RADIAN.));
#5410=(NAMED_UNIT(*) SI_UNIT($,.STERADIAN.) SOLID_ANGLE_UNIT());
#5420=(GEOMETRIC_REPRESENTATION_CONTEXT(3) 
GLOBAL_UNCERTAINTY_ASSIGNED_CONTEXT((#5430)) 
GLOBAL_UNIT_ASSIGNED_CONTEXT((#5390,#5400,#5410)) REPRESENTATION_CONTEXT
('',''));
#5430=UNCERTAINTY_MEASURE_WITH_UNIT(LENGTH_MEASURE(1.E-6),#5390,
'distance_accuracy_value','maximum gap value');
#5440=SHAPE_REPRESENTATION('',(#4800,#5250),#5420);
#5450=SHAPE_DEFINITION_REPRESENTATION(#5350,#5440);
#5460=(REPRESENTATION_RELATIONSHIP('','',#4980,#5440) 
REPRESENTATION_RELATIONSHIP_WITH_TRANSFORMATION(#5260) 
SHAPE_REPRESENTATION_RELATIONSHIP());
#5470=NEXT_ASSEMBLY_USAGE_OCCURRENCE('1','','D-PT-10-SELECT',#5340,#4880
,'');
#5480=PRODUCT_DEFINITION_SHAPE('','',#5470);
#5490=CONTEXT_DEPENDENT_SHAPE_REPRESENTATION(#5460,#5480);
ENDSEC;
END-ISO-10303-21;
