ISO-10303-21;
HEADER;
FILE_DESCRIPTION(('Creo Elements/Direct Modeling STEP Export'),'2;1');
FILE_NAME(
'D:/temp/JobSpoolerServerData/JobServer Files/b446fda9-18e9-4ccd-82c5-41
c559374cf6/work/output/model.stp','2017-11-17T 6:12:31',(''),(''),
'Creo Elements/Direct Modeling STEP processor for AP214 (Solid Model)',
'Creo Elements/Direct Modeling 18.1I  14-Aug-2016 (C) Parametric Technol
ogy GmbH','');
FILE_SCHEMA(('AUTOMOTIVE_DESIGN { 1 0 10303 214 1 1 1 1 }'));
ENDSEC;
DATA;
#10=CARTESIAN_POINT('',(-58.8428327847451,-38.199999999994,
53.6700000000045));
#20=DIRECTION('',(-1.,0.,0.));
#30=DIRECTION('',(0.,1.,0.));
#40=AXIS2_PLACEMENT_3D('',#10,#20,#30);
#50=PLANE('',#40);
#60=CARTESIAN_POINT('',(-58.8428327847451,-17.2000004103797,
53.6700000000045));
#70=DIRECTION('',(0.,0.,1.));
#80=VECTOR('',#70,1.);
#90=LINE('',#60,#80);
#100=CARTESIAN_POINT('',(-58.8428327847451,-17.2000004103797,
53.6700000002694));
#110=VERTEX_POINT('',#100);
#120=CARTESIAN_POINT('',(-58.8428327847451,-17.2000004103797,
55.8699999999997));
#130=VERTEX_POINT('',#120);
#140=EDGE_CURVE('',#110,#130,#90,.T.);
#150=ORIENTED_EDGE('',*,*,#140,.T.);
#160=CARTESIAN_POINT('',(-58.8428327847451,-22.363129,53.6700000002693))
;
#170=DIRECTION('',(0.,1.,1.05655906439346E-14));
#180=VECTOR('',#170,1.);
#190=LINE('',#160,#180);
#200=CARTESIAN_POINT('',(-58.8428327847451,-9.32655226390536,
53.6700000000045));
#210=VERTEX_POINT('',#200);
#220=EDGE_CURVE('',#110,#210,#190,.T.);
#230=ORIENTED_EDGE('',*,*,#220,.F.);
#240=CARTESIAN_POINT('',(-58.8428327847451,-9.32655226390536,53.67));
#250=DIRECTION('',(0.,-1.14783705698592E-11,-1.));
#260=VECTOR('',#250,1.);
#270=LINE('',#240,#260);
#280=CARTESIAN_POINT('',(-58.8428327847451,-9.32655226388011,
55.8700000000045));
#290=VERTEX_POINT('',#280);
#300=EDGE_CURVE('',#290,#210,#270,.T.);
#310=ORIENTED_EDGE('',*,*,#300,.T.);
#320=CARTESIAN_POINT('',(-58.8428327847451,-22.363129,55.8699999999997))
;
#330=DIRECTION('',(0.,-1.,0.));
#340=VECTOR('',#330,1.);
#350=LINE('',#320,#340);
#360=EDGE_CURVE('',#290,#130,#350,.T.);
#370=ORIENTED_EDGE('',*,*,#360,.F.);
#380=EDGE_LOOP('',(#370,#310,#230,#150));
#390=FACE_OUTER_BOUND('',#380,.T.);
#400=ADVANCED_FACE('',(#390),#50,.T.);
#410=COLOUR_RGB('',0.560784339904785,0.588235318660736,0.600000023841858
);
#420=FILL_AREA_STYLE_COLOUR('',#410);
#430=FILL_AREA_STYLE('',(#420));
#440=SURFACE_STYLE_FILL_AREA(#430);
#450=SURFACE_SIDE_STYLE('',(#440));
#460=SURFACE_STYLE_USAGE(.BOTH.,#450);
#470=PRESENTATION_STYLE_ASSIGNMENT((#460));
#480=CARTESIAN_POINT('',(31.6821672216756,-35.1999999941736,
53.6699999965196));
#490=DIRECTION('',(0.348545836923375,-0.937291736634536,
-6.97349787257112E-11));
#500=DIRECTION('',(-0.937291736634536,-0.348545836923375,
1.87527757804217E-10));
#510=AXIS2_PLACEMENT_3D('',#480,#490,#500);
#520=PLANE('',#510);
#530=CARTESIAN_POINT('',(23.6147197944261,-38.2000000000014,53.67));
#540=DIRECTION('',(2.00074054366174E-10,0.,1.));
#550=VECTOR('',#540,1.);
#560=LINE('',#530,#550);
#570=CARTESIAN_POINT('',(23.6147197944261,-38.2000000000014,
53.6700000000032));
#580=VERTEX_POINT('',#570);
#590=CARTESIAN_POINT('',(23.6147197948663,-38.2000000000014,
55.8699999999997));
#600=VERTEX_POINT('',#590);
#610=EDGE_CURVE('',#580,#600,#560,.T.);
#620=ORIENTED_EDGE('',*,*,#610,.F.);
#630=CARTESIAN_POINT('',(31.631009,-35.2190239379959,55.8699999999997));
#640=DIRECTION('',(0.937291736634536,0.348545836923375,0.));
#650=VECTOR('',#640,1.);
#660=LINE('',#630,#650);
#670=CARTESIAN_POINT('',(31.6821672216756,-35.1999999943373,
55.8699999999994));
#680=VERTEX_POINT('',#670);
#690=EDGE_CURVE('',#600,#680,#660,.T.);
#700=ORIENTED_EDGE('',*,*,#690,.F.);
#710=CARTESIAN_POINT('',(31.6821672216756,-35.1999999941736,53.67));
#720=DIRECTION('',(0.,7.44005052003376E-11,-1.));
#730=VECTOR('',#720,1.);
#740=LINE('',#710,#730);
#750=CARTESIAN_POINT('',(31.6821672216756,-35.1999999941736,
53.6700000000032));
#760=VERTEX_POINT('',#750);
#770=EDGE_CURVE('',#680,#760,#740,.T.);
#780=ORIENTED_EDGE('',*,*,#770,.F.);
#790=CARTESIAN_POINT('',(31.631009,-35.2190239379959,53.6700000002678));
#800=DIRECTION('',(-0.937291736634536,-0.348545836923375,
1.06303854607859E-14));
#810=VECTOR('',#800,1.);
#820=LINE('',#790,#810);
#830=EDGE_CURVE('',#760,#580,#820,.T.);
#840=ORIENTED_EDGE('',*,*,#830,.F.);
#850=EDGE_LOOP('',(#840,#780,#700,#620));
#860=FACE_OUTER_BOUND('',#850,.T.);
#870=ADVANCED_FACE('',(#860),#520,.T.);
#880=COLOUR_RGB('',0.560784339904785,0.588235318660736,0.600000023841858
);
#890=FILL_AREA_STYLE_COLOUR('',#880);
#900=FILL_AREA_STYLE('',(#890));
#910=SURFACE_STYLE_FILL_AREA(#900);
#920=SURFACE_SIDE_STYLE('',(#910));
#930=SURFACE_STYLE_USAGE(.BOTH.,#920);
#940=PRESENTATION_STYLE_ASSIGNMENT((#930));
#950=CARTESIAN_POINT('',(11.2481772508386,-3.97050078915333,
53.6700000002684));
#960=DIRECTION('',(-1.52474024617862E-14,1.05655906439346E-14,-1.));
#970=DIRECTION('',(-1.,-9.43689570931485E-16,1.52474024617862E-14));
#980=AXIS2_PLACEMENT_3D('',#950,#960,#970);
#990=PLANE('',#980);
#1000=CARTESIAN_POINT('',(-61.1415329994041,-22.363129,53.6700000002693)
);
#1010=DIRECTION('',(0.173648177667275,0.984807753012147,
7.7715611723761E-15));
#1020=VECTOR('',#1010,1.);
#1030=LINE('',#1000,#1020);
#1040=CARTESIAN_POINT('',(-57.5862293411869,-2.19999999999896,
53.6700000000045));
#1050=VERTEX_POINT('',#1040);
#1060=EDGE_CURVE('',#210,#1050,#1030,.T.);
#1070=ORIENTED_EDGE('',*,*,#1060,.T.);
#1080=ORIENTED_EDGE('',*,*,#220,.T.);
#1090=CARTESIAN_POINT('',(-72.3613388123059,-23.7000000090567,
53.6700000002695));
#1100=DIRECTION('',(0.,0.,1.));
#1110=DIRECTION('',(1.,8.02136135291675E-14,0.));
#1120=AXIS2_PLACEMENT_3D('',#1090,#1100,#1110);
#1130=CIRCLE('',#1120,15.);
#1140=CARTESIAN_POINT('',(-58.8428327847451,-30.1999996077338,
53.6700000000045));
#1150=VERTEX_POINT('',#1140);
#1160=EDGE_CURVE('',#1150,#110,#1130,.T.);
#1170=ORIENTED_EDGE('',*,*,#1160,.T.);
#1180=CARTESIAN_POINT('',(-58.8428327847451,-22.363129,53.6700000002693)
);
#1190=DIRECTION('',(0.,1.,1.05655906439346E-14));
#1200=VECTOR('',#1190,1.);
#1210=LINE('',#1180,#1200);
#1220=CARTESIAN_POINT('',(-58.8428327847451,-38.2000000000014,
53.6700000000045));
#1230=VERTEX_POINT('',#1220);
#1240=EDGE_CURVE('',#1230,#1150,#1210,.T.);
#1250=ORIENTED_EDGE('',*,*,#1240,.T.);
#1260=CARTESIAN_POINT('',(31.631009,-38.2000000000014,53.6700000002678))
;
#1270=DIRECTION('',(-1.,0.,1.52474024617862E-14));
#1280=VECTOR('',#1270,1.);
#1290=LINE('',#1260,#1280);
#1300=CARTESIAN_POINT('',(-12.717832787526,-38.2000000000014,
53.6700000002684));
#1310=VERTEX_POINT('',#1300);
#1320=EDGE_CURVE('',#1310,#1230,#1290,.T.);
#1330=ORIENTED_EDGE('',*,*,#1320,.T.);
#1340=EDGE_CURVE('',#580,#1310,#1290,.T.);
#1350=ORIENTED_EDGE('',*,*,#1340,.T.);
#1360=ORIENTED_EDGE('',*,*,#830,.T.);
#1370=CARTESIAN_POINT('',(31.6821672216756,-22.363129,53.6700000002679))
;
#1380=DIRECTION('',(0.,-1.,-1.05655906439346E-14));
#1390=VECTOR('',#1380,1.);
#1400=LINE('',#1370,#1390);
#1410=CARTESIAN_POINT('',(31.6821672216756,-33.1999999933289,53.67));
#1420=VERTEX_POINT('',#1410);
#1430=EDGE_CURVE('',#1420,#760,#1400,.T.);
#1440=ORIENTED_EDGE('',*,*,#1430,.T.);
#1450=CARTESIAN_POINT('',(51.0986550670314,-25.200000008882,
53.6700000002676));
#1460=DIRECTION('',(0.,0.,1.));
#1470=DIRECTION('',(1.,0.,0.));
#1480=AXIS2_PLACEMENT_3D('',#1450,#1460,#1470);
#1490=CIRCLE('',#1480,21.);
#1500=CARTESIAN_POINT('',(31.6821672216756,-17.2000000244351,
53.6700000002678));
#1510=VERTEX_POINT('',#1500);
#1520=EDGE_CURVE('',#1510,#1420,#1490,.T.);
#1530=ORIENTED_EDGE('',*,*,#1520,.T.);
#1540=CARTESIAN_POINT('',(31.6821672216756,-22.363129,53.6700000002679))
;
#1550=DIRECTION('',(0.,-1.,-1.05655906439346E-14));
#1560=VECTOR('',#1550,1.);
#1570=LINE('',#1540,#1560);
#1580=CARTESIAN_POINT('',(31.6821672216756,-9.32655332142023,
53.6700000002681));
#1590=VERTEX_POINT('',#1580);
#1600=EDGE_CURVE('',#1590,#1510,#1570,.T.);
#1610=ORIENTED_EDGE('',*,*,#1600,.T.);
#1620=CARTESIAN_POINT('',(33.9808672499115,-22.363129,53.6700000002679))
;
#1630=DIRECTION('',(0.173648177670928,-0.984807753011503,
-1.30451205393456E-14));
#1640=VECTOR('',#1630,1.);
#1650=LINE('',#1620,#1640);
#1660=CARTESIAN_POINT('',(30.4255635916216,-2.19999999999896,
53.6700000002682));
#1670=VERTEX_POINT('',#1660);
#1680=EDGE_CURVE('',#1670,#1590,#1650,.T.);
#1690=ORIENTED_EDGE('',*,*,#1680,.T.);
#1700=CARTESIAN_POINT('',(31.631009,-2.19999999999897,53.6700000002681))
;
#1710=DIRECTION('',(1.,0.,-1.52474024617862E-14));
#1720=VECTOR('',#1710,1.);
#1730=LINE('',#1700,#1720);
#1740=EDGE_CURVE('',#1050,#1670,#1730,.T.);
#1750=ORIENTED_EDGE('',*,*,#1740,.T.);
#1760=EDGE_LOOP('',(#1750,#1690,#1610,#1530,#1440,#1360,#1350,#1330,
#1250,#1170,#1080,#1070));
#1770=FACE_OUTER_BOUND('',#1760,.T.);
#1780=ADVANCED_FACE('',(#1770),#990,.T.);
#1790=COLOUR_RGB('',0.560784339904785,0.588235318660736,
0.600000023841858);
#1800=FILL_AREA_STYLE_COLOUR('',#1790);
#1810=FILL_AREA_STYLE('',(#1800));
#1820=SURFACE_STYLE_FILL_AREA(#1810);
#1830=SURFACE_SIDE_STYLE('',(#1820));
#1840=SURFACE_STYLE_USAGE(.BOTH.,#1830);
#1850=PRESENTATION_STYLE_ASSIGNMENT((#1840));
#1860=CARTESIAN_POINT('',(-72.3613388123059,-23.7000000090567,
53.6700000000045));
#1870=DIRECTION('',(0.,0.,1.));
#1880=DIRECTION('',(1.,8.02136135291675E-14,0.));
#1890=AXIS2_PLACEMENT_3D('',#1860,#1870,#1880);
#1900=CYLINDRICAL_SURFACE('',#1890,15.);
#1910=ORIENTED_EDGE('',*,*,#1160,.F.);
#1920=ORIENTED_EDGE('',*,*,#140,.F.);
#1930=CARTESIAN_POINT('',(-72.3613388123059,-23.7000000090567,
55.8699999999997));
#1940=DIRECTION('',(0.,0.,1.));
#1950=DIRECTION('',(1.,8.02136135291675E-14,0.));
#1960=AXIS2_PLACEMENT_3D('',#1930,#1940,#1950);
#1970=CIRCLE('',#1960,15.);
#1980=CARTESIAN_POINT('',(-58.8428327847451,-30.1999996077338,
55.8699999999997));
#1990=VERTEX_POINT('',#1980);
#2000=EDGE_CURVE('',#1990,#130,#1970,.T.);
#2010=ORIENTED_EDGE('',*,*,#2000,.T.);
#2020=CARTESIAN_POINT('',(-58.8428327847451,-30.1999996077338,
53.6700000000045));
#2030=DIRECTION('',(0.,0.,1.));
#2040=VECTOR('',#2030,1.);
#2050=LINE('',#2020,#2040);
#2060=EDGE_CURVE('',#1150,#1990,#2050,.T.);
#2070=ORIENTED_EDGE('',*,*,#2060,.T.);
#2080=EDGE_LOOP('',(#2070,#2010,#1920,#1910));
#2090=FACE_OUTER_BOUND('',#2080,.T.);
#2100=ADVANCED_FACE('',(#2090),#1900,.F.);
#2110=COLOUR_RGB('',0.560784339904785,0.588235318660736,
0.600000023841858);
#2120=FILL_AREA_STYLE_COLOUR('',#2110);
#2130=FILL_AREA_STYLE('',(#2120));
#2140=SURFACE_STYLE_FILL_AREA(#2130);
#2150=SURFACE_SIDE_STYLE('',(#2140));
#2160=SURFACE_STYLE_USAGE(.BOTH.,#2150);
#2170=PRESENTATION_STYLE_ASSIGNMENT((#2160));
#2180=CARTESIAN_POINT('',(31.6821672216756,-2.19999999999897,53.67));
#2190=DIRECTION('',(1.,0.,0.));
#2200=DIRECTION('',(0.,-1.,0.));
#2210=AXIS2_PLACEMENT_3D('',#2180,#2190,#2200);
#2220=PLANE('',#2210);
#2230=CARTESIAN_POINT('',(31.6821672216756,-22.363129,55.8699999999997))
;
#2240=DIRECTION('',(0.,1.,0.));
#2250=VECTOR('',#2240,1.);
#2260=LINE('',#2230,#2250);
#2270=CARTESIAN_POINT('',(31.6821672216756,-33.1999999933289,55.87));
#2280=VERTEX_POINT('',#2270);
#2290=EDGE_CURVE('',#680,#2280,#2260,.T.);
#2300=ORIENTED_EDGE('',*,*,#2290,.F.);
#2310=CARTESIAN_POINT('',(31.6821672216756,-33.1999999933289,53.67));
#2320=DIRECTION('',(0.,0.,1.));
#2330=VECTOR('',#2320,1.);
#2340=LINE('',#2310,#2330);
#2350=EDGE_CURVE('',#1420,#2280,#2340,.T.);
#2360=ORIENTED_EDGE('',*,*,#2350,.T.);
#2370=ORIENTED_EDGE('',*,*,#1430,.F.);
#2380=ORIENTED_EDGE('',*,*,#770,.T.);
#2390=EDGE_LOOP('',(#2380,#2370,#2360,#2300));
#2400=FACE_OUTER_BOUND('',#2390,.T.);
#2410=ADVANCED_FACE('',(#2400),#2220,.T.);
#2420=COLOUR_RGB('',0.560784339904785,0.588235318660736,
0.600000023841858);
#2430=FILL_AREA_STYLE_COLOUR('',#2420);
#2440=FILL_AREA_STYLE('',(#2430));
#2450=SURFACE_STYLE_FILL_AREA(#2440);
#2460=SURFACE_SIDE_STYLE('',(#2450));
#2470=SURFACE_STYLE_USAGE(.BOTH.,#2460);
#2480=PRESENTATION_STYLE_ASSIGNMENT((#2470));
#2490=CARTESIAN_POINT('',(-30.1303595072662,-2.19999999999897,
55.4881177917555));
#2500=DIRECTION('',(0.,1.,-0.));
#2510=DIRECTION('',(-1.,0.,0.));
#2520=AXIS2_PLACEMENT_3D('',#2490,#2500,#2510);
#2530=PLANE('',#2520);
#2540=CARTESIAN_POINT('',(30.4255635916216,-2.19999999999896,53.67));
#2550=DIRECTION('',(0.,0.,-1.));
#2560=VECTOR('',#2550,1.);
#2570=LINE('',#2540,#2560);
#2580=CARTESIAN_POINT('',(30.4255635916216,-2.19999999999896,
55.8699999999997));
#2590=VERTEX_POINT('',#2580);
#2600=EDGE_CURVE('',#2590,#1670,#2570,.T.);
#2610=ORIENTED_EDGE('',*,*,#2600,.T.);
#2620=CARTESIAN_POINT('',(31.631009,-2.19999999999897,55.8699999999997))
;
#2630=DIRECTION('',(-1.,0.,0.));
#2640=VECTOR('',#2630,1.);
#2650=LINE('',#2620,#2640);
#2660=CARTESIAN_POINT('',(-57.5862293411913,-2.19999999999896,
55.8700000000045));
#2670=VERTEX_POINT('',#2660);
#2680=EDGE_CURVE('',#2590,#2670,#2650,.T.);
#2690=ORIENTED_EDGE('',*,*,#2680,.F.);
#2700=CARTESIAN_POINT('',(-57.5862293411869,-2.19999999999896,53.67));
#2710=DIRECTION('',(-2.02394642604032E-12,0.,1.));
#2720=VECTOR('',#2710,1.);
#2730=LINE('',#2700,#2720);
#2740=EDGE_CURVE('',#1050,#2670,#2730,.T.);
#2750=ORIENTED_EDGE('',*,*,#2740,.T.);
#2760=ORIENTED_EDGE('',*,*,#1740,.F.);
#2770=EDGE_LOOP('',(#2760,#2750,#2690,#2610));
#2780=FACE_OUTER_BOUND('',#2770,.T.);
#2790=ADVANCED_FACE('',(#2780),#2530,.T.);
#2800=COLOUR_RGB('',0.560784339904785,0.588235318660736,
0.600000023841858);
#2810=FILL_AREA_STYLE_COLOUR('',#2800);
#2820=FILL_AREA_STYLE('',(#2810));
#2830=SURFACE_STYLE_FILL_AREA(#2820);
#2840=SURFACE_SIDE_STYLE('',(#2830));
#2850=SURFACE_STYLE_USAGE(.BOTH.,#2840);
#2860=PRESENTATION_STYLE_ASSIGNMENT((#2850));
#2870=CARTESIAN_POINT('',(20.3321672216756,-38.2000000000014,
53.6700000000002));
#2880=DIRECTION('',(-0.,-1.,-0.));
#2890=DIRECTION('',(-1.,0.,0.));
#2900=AXIS2_PLACEMENT_3D('',#2870,#2880,#2890);
#2910=PLANE('',#2900);
#2920=CARTESIAN_POINT('',(-58.8428327847451,-38.2000000000014,53.67));
#2930=DIRECTION('',(0.,0.,1.));
#2940=VECTOR('',#2930,1.);
#2950=LINE('',#2920,#2940);
#2960=CARTESIAN_POINT('',(-58.8428327847451,-38.2000000000014,
55.8700000000045));
#2970=VERTEX_POINT('',#2960);
#2980=EDGE_CURVE('',#1230,#2970,#2950,.T.);
#2990=ORIENTED_EDGE('',*,*,#2980,.F.);
#3000=CARTESIAN_POINT('',(31.631009,-38.2000000000014,55.8699999999997))
;
#3010=DIRECTION('',(1.,0.,0.));
#3020=VECTOR('',#3010,1.);
#3030=LINE('',#3000,#3020);
#3040=CARTESIAN_POINT('',(-12.717832787526,-38.2000000000014,
55.8699999999997));
#3050=VERTEX_POINT('',#3040);
#3060=EDGE_CURVE('',#2970,#3050,#3030,.T.);
#3070=ORIENTED_EDGE('',*,*,#3060,.F.);
#3080=CARTESIAN_POINT('',(-12.717832787526,-38.2000000000014,53.67));
#3090=DIRECTION('',(-9.68921912518494E-15,0.,1.));
#3100=VECTOR('',#3090,1.);
#3110=LINE('',#3080,#3100);
#3120=EDGE_CURVE('',#1310,#3050,#3110,.T.);
#3130=ORIENTED_EDGE('',*,*,#3120,.T.);
#3140=ORIENTED_EDGE('',*,*,#1320,.F.);
#3150=EDGE_LOOP('',(#3140,#3130,#3070,#2990));
#3160=FACE_OUTER_BOUND('',#3150,.T.);
#3170=ADVANCED_FACE('',(#3160),#2910,.T.);
#3180=COLOUR_RGB('',0.560784339904785,0.588235318660736,
0.600000023841858);
#3190=FILL_AREA_STYLE_COLOUR('',#3180);
#3200=FILL_AREA_STYLE('',(#3190));
#3210=SURFACE_STYLE_FILL_AREA(#3200);
#3220=SURFACE_SIDE_STYLE('',(#3210));
#3230=SURFACE_STYLE_USAGE(.BOTH.,#3220);
#3240=PRESENTATION_STYLE_ASSIGNMENT((#3230));
#3250=CARTESIAN_POINT('',(51.0986550670314,-25.200000008882,53.67));
#3260=DIRECTION('',(0.,0.,1.));
#3270=DIRECTION('',(1.,0.,0.));
#3280=AXIS2_PLACEMENT_3D('',#3250,#3260,#3270);
#3290=CYLINDRICAL_SURFACE('',#3280,21.);
#3300=ORIENTED_EDGE('',*,*,#2350,.F.);
#3310=CARTESIAN_POINT('',(51.0986550670314,-25.200000008882,
55.8699999999997));
#3320=DIRECTION('',(0.,0.,1.));
#3330=DIRECTION('',(1.,0.,0.));
#3340=AXIS2_PLACEMENT_3D('',#3310,#3320,#3330);
#3350=CIRCLE('',#3340,21.);
#3360=CARTESIAN_POINT('',(31.6821672216756,-17.2000000244351,
55.8699999999997));
#3370=VERTEX_POINT('',#3360);
#3380=EDGE_CURVE('',#3370,#2280,#3350,.T.);
#3390=ORIENTED_EDGE('',*,*,#3380,.T.);
#3400=CARTESIAN_POINT('',(31.6821672216756,-17.2000000244351,53.67));
#3410=DIRECTION('',(0.,0.,1.));
#3420=VECTOR('',#3410,1.);
#3430=LINE('',#3400,#3420);
#3440=EDGE_CURVE('',#1510,#3370,#3430,.T.);
#3450=ORIENTED_EDGE('',*,*,#3440,.T.);
#3460=ORIENTED_EDGE('',*,*,#1520,.F.);
#3470=EDGE_LOOP('',(#3460,#3450,#3390,#3300));
#3480=FACE_OUTER_BOUND('',#3470,.T.);
#3490=ADVANCED_FACE('',(#3480),#3290,.F.);
#3500=COLOUR_RGB('',0.560784339904785,0.588235318660736,
0.600000023841858);
#3510=FILL_AREA_STYLE_COLOUR('',#3500);
#3520=FILL_AREA_STYLE('',(#3510));
#3530=SURFACE_STYLE_FILL_AREA(#3520);
#3540=SURFACE_SIDE_STYLE('',(#3530));
#3550=SURFACE_STYLE_USAGE(.BOTH.,#3540);
#3560=PRESENTATION_STYLE_ASSIGNMENT((#3550));
#3570=CARTESIAN_POINT('',(-15.7939704595387,-24.6999999999968,
55.8699999999997));
#3580=DIRECTION('',(0.,0.,1.));
#3590=DIRECTION('',(1.,0.,0.));
#3600=AXIS2_PLACEMENT_3D('',#3570,#3580,#3590);
#3610=PLANE('',#3600);
#3620=CARTESIAN_POINT('',(33.9808672499115,-22.363129,55.8699999999997))
;
#3630=DIRECTION('',(-0.173648177670928,0.984807753011503,0.));
#3640=VECTOR('',#3630,1.);
#3650=LINE('',#3620,#3640);
#3660=CARTESIAN_POINT('',(31.6821672216756,-9.32655332142023,
55.8699999999997));
#3670=VERTEX_POINT('',#3660);
#3680=EDGE_CURVE('',#3670,#2590,#3650,.T.);
#3690=ORIENTED_EDGE('',*,*,#3680,.T.);
#3700=CARTESIAN_POINT('',(31.6821672216756,-22.363129,55.8699999999997))
;
#3710=DIRECTION('',(0.,1.,0.));
#3720=VECTOR('',#3710,1.);
#3730=LINE('',#3700,#3720);
#3740=EDGE_CURVE('',#3370,#3670,#3730,.T.);
#3750=ORIENTED_EDGE('',*,*,#3740,.T.);
#3760=ORIENTED_EDGE('',*,*,#3380,.F.);
#3770=ORIENTED_EDGE('',*,*,#2290,.T.);
#3780=ORIENTED_EDGE('',*,*,#690,.T.);
#3790=EDGE_CURVE('',#3050,#600,#3030,.T.);
#3800=ORIENTED_EDGE('',*,*,#3790,.T.);
#3810=ORIENTED_EDGE('',*,*,#3060,.T.);
#3820=CARTESIAN_POINT('',(-58.8428327847451,-22.363129,55.8699999999997)
);
#3830=DIRECTION('',(0.,-1.,0.));
#3840=VECTOR('',#3830,1.);
#3850=LINE('',#3820,#3840);
#3860=EDGE_CURVE('',#1990,#2970,#3850,.T.);
#3870=ORIENTED_EDGE('',*,*,#3860,.T.);
#3880=ORIENTED_EDGE('',*,*,#2000,.F.);
#3890=ORIENTED_EDGE('',*,*,#360,.T.);
#3900=CARTESIAN_POINT('',(-61.1415329994041,-22.363129,55.8699999999997)
);
#3910=DIRECTION('',(-0.173648177667275,-0.984807753012147,0.));
#3920=VECTOR('',#3910,1.);
#3930=LINE('',#3900,#3920);
#3940=EDGE_CURVE('',#2670,#290,#3930,.T.);
#3950=ORIENTED_EDGE('',*,*,#3940,.T.);
#3960=ORIENTED_EDGE('',*,*,#2680,.T.);
#3970=EDGE_LOOP('',(#3960,#3950,#3890,#3880,#3870,#3810,#3800,#3780,
#3770,#3760,#3750,#3690));
#3980=FACE_OUTER_BOUND('',#3970,.T.);
#3990=ADVANCED_FACE('',(#3980),#3610,.T.);
#4000=COLOUR_RGB('',0.560784339904785,0.588235318660736,
0.600000023841858);
#4010=FILL_AREA_STYLE_COLOUR('',#4000);
#4020=FILL_AREA_STYLE('',(#4010));
#4030=SURFACE_STYLE_FILL_AREA(#4020);
#4040=SURFACE_SIDE_STYLE('',(#4030));
#4050=SURFACE_STYLE_USAGE(.BOTH.,#4040);
#4060=PRESENTATION_STYLE_ASSIGNMENT((#4050));
#4070=ORIENTED_EDGE('',*,*,#3790,.F.);
#4080=ORIENTED_EDGE('',*,*,#610,.T.);
#4090=ORIENTED_EDGE('',*,*,#1340,.F.);
#4100=ORIENTED_EDGE('',*,*,#3120,.F.);
#4110=EDGE_LOOP('',(#4100,#4090,#4080,#4070));
#4120=FACE_OUTER_BOUND('',#4110,.T.);
#4130=ADVANCED_FACE('',(#4120),#2910,.T.);
#4140=COLOUR_RGB('',0.560784339904785,0.588235318660736,
0.600000023841858);
#4150=FILL_AREA_STYLE_COLOUR('',#4140);
#4160=FILL_AREA_STYLE('',(#4150));
#4170=SURFACE_STYLE_FILL_AREA(#4160);
#4180=SURFACE_SIDE_STYLE('',(#4170));
#4190=SURFACE_STYLE_USAGE(.BOTH.,#4180);
#4200=PRESENTATION_STYLE_ASSIGNMENT((#4190));
#4210=CARTESIAN_POINT('',(31.6517827276986,-9.15423429313432,
51.4699975999976));
#4220=DIRECTION('',(-0.984807753011503,-0.173648177670928,-0.));
#4230=DIRECTION('',(-0.173648177670928,0.984807753011503,0.));
#4240=AXIS2_PLACEMENT_3D('',#4210,#4220,#4230);
#4250=PLANE('',#4240);
#4260=ORIENTED_EDGE('',*,*,#3680,.F.);
#4270=ORIENTED_EDGE('',*,*,#2600,.F.);
#4280=ORIENTED_EDGE('',*,*,#1680,.F.);
#4290=CARTESIAN_POINT('',(31.6821672216756,-9.32655332142023,53.67));
#4300=DIRECTION('',(0.,0.,1.));
#4310=VECTOR('',#4300,1.);
#4320=LINE('',#4290,#4310);
#4330=EDGE_CURVE('',#1590,#3670,#4320,.T.);
#4340=ORIENTED_EDGE('',*,*,#4330,.F.);
#4350=EDGE_LOOP('',(#4340,#4280,#4270,#4260));
#4360=FACE_OUTER_BOUND('',#4350,.T.);
#4370=ADVANCED_FACE('',(#4360),#4250,.F.);
#4380=COLOUR_RGB('',0.560784339904785,0.588235318660736,
0.600000023841858);
#4390=FILL_AREA_STYLE_COLOUR('',#4380);
#4400=FILL_AREA_STYLE('',(#4390));
#4410=SURFACE_STYLE_FILL_AREA(#4400);
#4420=SURFACE_SIDE_STYLE('',(#4410));
#4430=SURFACE_STYLE_USAGE(.BOTH.,#4420);
#4440=PRESENTATION_STYLE_ASSIGNMENT((#4430));
#4450=CARTESIAN_POINT('',(31.6821672216756,-2.19999999999897,53.67));
#4460=DIRECTION('',(1.,0.,0.));
#4470=DIRECTION('',(0.,-1.,0.));
#4480=AXIS2_PLACEMENT_3D('',#4450,#4460,#4470);
#4490=PLANE('',#4480);
#4500=ORIENTED_EDGE('',*,*,#1600,.F.);
#4510=ORIENTED_EDGE('',*,*,#3440,.F.);
#4520=ORIENTED_EDGE('',*,*,#3740,.F.);
#4530=ORIENTED_EDGE('',*,*,#4330,.T.);
#4540=EDGE_LOOP('',(#4530,#4520,#4510,#4500));
#4550=FACE_OUTER_BOUND('',#4540,.T.);
#4560=ADVANCED_FACE('',(#4550),#4490,.T.);
#4570=COLOUR_RGB('',0.560784339904785,0.588235318660736,
0.600000023841858);
#4580=FILL_AREA_STYLE_COLOUR('',#4570);
#4590=FILL_AREA_STYLE('',(#4580));
#4600=SURFACE_STYLE_FILL_AREA(#4590);
#4610=SURFACE_SIDE_STYLE('',(#4600));
#4620=SURFACE_STYLE_USAGE(.BOTH.,#4610);
#4630=PRESENTATION_STYLE_ASSIGNMENT((#4620));
#4640=ORIENTED_EDGE('',*,*,#3860,.F.);
#4650=ORIENTED_EDGE('',*,*,#2980,.T.);
#4660=ORIENTED_EDGE('',*,*,#1240,.F.);
#4670=ORIENTED_EDGE('',*,*,#2060,.F.);
#4680=EDGE_LOOP('',(#4670,#4660,#4650,#4640));
#4690=FACE_OUTER_BOUND('',#4680,.T.);
#4700=ADVANCED_FACE('',(#4690),#50,.T.);
#4710=COLOUR_RGB('',0.560784339904785,0.588235318660736,
0.600000023841858);
#4720=FILL_AREA_STYLE_COLOUR('',#4710);
#4730=FILL_AREA_STYLE('',(#4720));
#4740=SURFACE_STYLE_FILL_AREA(#4730);
#4750=SURFACE_SIDE_STYLE('',(#4740));
#4760=SURFACE_STYLE_USAGE(.BOTH.,#4750);
#4770=PRESENTATION_STYLE_ASSIGNMENT((#4760));
#4780=CARTESIAN_POINT('',(-58.8730737225004,-9.49805714443899,
50.6700000000095));
#4790=DIRECTION('',(0.984807753012147,-0.173648177667275,
1.99319813204573E-12));
#4800=DIRECTION('',(-0.173648177667275,-0.984807753012148,
-7.66150781907452E-13));
#4810=AXIS2_PLACEMENT_3D('',#4780,#4790,#4800);
#4820=PLANE('',#4810);
#4830=ORIENTED_EDGE('',*,*,#1060,.F.);
#4840=ORIENTED_EDGE('',*,*,#2740,.F.);
#4850=ORIENTED_EDGE('',*,*,#3940,.F.);
#4860=ORIENTED_EDGE('',*,*,#300,.F.);
#4870=EDGE_LOOP('',(#4860,#4850,#4840,#4830));
#4880=FACE_OUTER_BOUND('',#4870,.T.);
#4890=ADVANCED_FACE('',(#4880),#4820,.F.);
#4900=COLOUR_RGB('',0.560784339904785,0.588235318660736,
0.600000023841858);
#4910=FILL_AREA_STYLE_COLOUR('',#4900);
#4920=FILL_AREA_STYLE('',(#4910));
#4930=SURFACE_STYLE_FILL_AREA(#4920);
#4940=SURFACE_SIDE_STYLE('',(#4930));
#4950=SURFACE_STYLE_USAGE(.BOTH.,#4940);
#4960=PRESENTATION_STYLE_ASSIGNMENT((#4950));
#4970=CLOSED_SHELL('',(#2410,#2790,#3170,#3490,#3990,#4130,#4370,#4560,
#4700,#4890,#400,#870,#1780,#2100));
#4980=MANIFOLD_SOLID_BREP('',#4970);
#4990=CARTESIAN_POINT('',(0.,0.,0.));
#5000=DIRECTION('',(0.,0.,1.));
#5010=DIRECTION('',(1.,0.,0.));
#5020=AXIS2_PLACEMENT_3D('',#4990,#5000,#5010);
#5030=APPLICATION_CONTEXT(' ');
#5040=APPLICATION_PROTOCOL_DEFINITION(' ','automotive_design',1998,#5030
);
#5050=PRODUCT_CONTEXT('',#5030,'mechanical');
#5060=PRODUCT_DEFINITION_CONTEXT('part definition',#5030,'design');
#5070=PRODUCT('D-PT_6-QUATTRO-select','D-PT_6-QUATTRO-select','',(#5050)
);
#5080=PRODUCT_RELATED_PRODUCT_CATEGORY('part',' ',(#5070));
#5090=PRODUCT_DEFINITION_FORMATION_WITH_SPECIFIED_SOURCE('','',#5070,
.BOUGHT.);
#5100=PRODUCT_DEFINITION('',' ',#5090,#5060);
#5110=PRODUCT_DEFINITION_SHAPE('','',#5100);
#5120=DIMENSIONAL_EXPONENTS(1.,0.,0.,0.,0.,0.,0.);
#5130=DIMENSIONAL_EXPONENTS(0.,0.,0.,0.,0.,0.,0.);
#5140=DIMENSIONAL_EXPONENTS(0.,0.,0.,0.,0.,0.,0.);
#5150=(LENGTH_UNIT() NAMED_UNIT(*) SI_UNIT(.MILLI.,.METRE.));
#5160=(NAMED_UNIT(*) PLANE_ANGLE_UNIT() SI_UNIT($,.RADIAN.));
#5170=(NAMED_UNIT(*) SI_UNIT($,.STERADIAN.) SOLID_ANGLE_UNIT());
#5180=(GEOMETRIC_REPRESENTATION_CONTEXT(3) 
GLOBAL_UNCERTAINTY_ASSIGNED_CONTEXT((#5190)) 
GLOBAL_UNIT_ASSIGNED_CONTEXT((#5150,#5160,#5170)) REPRESENTATION_CONTEXT
('',''));
#5190=UNCERTAINTY_MEASURE_WITH_UNIT(LENGTH_MEASURE(1.E-6),#5150,
'distance_accuracy_value','maximum gap value');
#5200=ADVANCED_BREP_SHAPE_REPRESENTATION('',(#5020,#4980),#5180);
#5210=SHAPE_DEFINITION_REPRESENTATION(#5110,#5200);
#5220=COLOUR_RGB('',0.560784339904785,0.588235318660736,
0.600000023841858);
#5230=FILL_AREA_STYLE_COLOUR('',#5220);
#5240=FILL_AREA_STYLE('',(#5230));
#5250=SURFACE_STYLE_FILL_AREA(#5240);
#5260=SURFACE_SIDE_STYLE('',(#5250));
#5270=SURFACE_STYLE_USAGE(.BOTH.,#5260);
#5280=PRESENTATION_STYLE_ASSIGNMENT((#5270));
#5290=STYLED_ITEM('',(#5280),#4980);
#5300=OVER_RIDING_STYLED_ITEM('',(#470),#400,#5290);
#5310=OVER_RIDING_STYLED_ITEM('',(#940),#870,#5290);
#5320=OVER_RIDING_STYLED_ITEM('',(#1850),#1780,#5290);
#5330=OVER_RIDING_STYLED_ITEM('',(#2170),#2100,#5290);
#5340=OVER_RIDING_STYLED_ITEM('',(#2480),#2410,#5290);
#5350=OVER_RIDING_STYLED_ITEM('',(#2860),#2790,#5290);
#5360=OVER_RIDING_STYLED_ITEM('',(#3240),#3170,#5290);
#5370=OVER_RIDING_STYLED_ITEM('',(#3560),#3490,#5290);
#5380=OVER_RIDING_STYLED_ITEM('',(#4060),#3990,#5290);
#5390=OVER_RIDING_STYLED_ITEM('',(#4200),#4130,#5290);
#5400=OVER_RIDING_STYLED_ITEM('',(#4440),#4370,#5290);
#5410=OVER_RIDING_STYLED_ITEM('',(#4630),#4560,#5290);
#5420=OVER_RIDING_STYLED_ITEM('',(#4770),#4700,#5290);
#5430=OVER_RIDING_STYLED_ITEM('',(#4960),#4890,#5290);
#5440=DRAUGHTING_MODEL('',(#5290,#5300,#5310,#5320,#5330,#5340,#5350,
#5360,#5370,#5380,#5390,#5400,#5410,#5420,#5430),#5180);
#5450=CARTESIAN_POINT('',(-53.6700000002693,58.8428327848006,
38.1999999997066));
#5460=DIRECTION('',(1.,-3.87209747153844E-23,2.22044604925031E-16));
#5470=DIRECTION('',(3.87223924251386E-23,1.,-6.38479712074239E-12));
#5480=AXIS2_PLACEMENT_3D('',#5450,#5460,#5470);
#5490=ITEM_DEFINED_TRANSFORMATION('D-PT_6-QUATTRO-select','',#5020,#5480
);
#5500=APPLICATION_CONTEXT(' ');
#5510=APPLICATION_PROTOCOL_DEFINITION(' ','automotive_design',1998,#5500
);
#5520=PRODUCT_CONTEXT('',#5500,'mechanical');
#5530=PRODUCT_DEFINITION_CONTEXT('part definition',#5500,'design');
#5540=PRODUCT('D-PT_6-QUATTRO-select','D-PT_6-QUATTRO-select','',(#5520)
);
#5550=PRODUCT_RELATED_PRODUCT_CATEGORY('part',' ',(#5540));
#5560=PRODUCT_DEFINITION_FORMATION_WITH_SPECIFIED_SOURCE('','',#5540,
.BOUGHT.);
#5570=PRODUCT_DEFINITION('',' ',#5560,#5530);
#5580=PRODUCT_DEFINITION_SHAPE('','',#5570);
#5590=DIMENSIONAL_EXPONENTS(1.,0.,0.,0.,0.,0.,0.);
#5600=DIMENSIONAL_EXPONENTS(0.,0.,0.,0.,0.,0.,0.);
#5610=DIMENSIONAL_EXPONENTS(0.,0.,0.,0.,0.,0.,0.);
#5620=(LENGTH_UNIT() NAMED_UNIT(*) SI_UNIT(.MILLI.,.METRE.));
#5630=(NAMED_UNIT(*) PLANE_ANGLE_UNIT() SI_UNIT($,.RADIAN.));
#5640=(NAMED_UNIT(*) SI_UNIT($,.STERADIAN.) SOLID_ANGLE_UNIT());
#5650=(GEOMETRIC_REPRESENTATION_CONTEXT(3) 
GLOBAL_UNCERTAINTY_ASSIGNED_CONTEXT((#5660)) 
GLOBAL_UNIT_ASSIGNED_CONTEXT((#5620,#5630,#5640)) REPRESENTATION_CONTEXT
('',''));
#5660=UNCERTAINTY_MEASURE_WITH_UNIT(LENGTH_MEASURE(1.E-6),#5620,
'distance_accuracy_value','maximum gap value');
#5670=SHAPE_REPRESENTATION('',(#5020,#5480),#5650);
#5680=SHAPE_DEFINITION_REPRESENTATION(#5580,#5670);
#5690=(REPRESENTATION_RELATIONSHIP('','',#5200,#5670) 
REPRESENTATION_RELATIONSHIP_WITH_TRANSFORMATION(#5490) 
SHAPE_REPRESENTATION_RELATIONSHIP());
#5700=NEXT_ASSEMBLY_USAGE_OCCURRENCE('1','','D-PT_6-QUATTRO-select',
#5570,#5100,'');
#5710=PRODUCT_DEFINITION_SHAPE('','',#5700);
#5720=CONTEXT_DEPENDENT_SHAPE_REPRESENTATION(#5690,#5710);
ENDSEC;
END-ISO-10303-21;
