ISO-10303-21;
HEADER;
FILE_DESCRIPTION(('Creo Elements/Direct Modeling STEP Export'),'2;1');
FILE_NAME(
'C:/temp/JobSpoolerServerData/JobServer Files/34fb8668-922d-4f36-9762-8a
0d57fae9b2/work/output/model.stp','2020-02-04T15:45:48',(''),(''),
'Creo Elements/Direct Modeling STEP processor for AP214 (Solid Model)',
'Creo Elements/Direct Modeling 20.1A  29-Sep-2018 (C) Parametric Technol
ogy GmbH','');
FILE_SCHEMA(('AUTOMOTIVE_DESIGN { 1 0 10303 214 1 1 1 1 }'));
ENDSEC;
DATA;
#10=CARTESIAN_POINT('',(122.282299103269,130.90817047268,
-0.572243511162453));
#20=DIRECTION('',(-0.939692620787741,-0.342020143320634,
-2.70039819638104E-11));
#30=DIRECTION('',(-0.342020143320634,0.939692620787741,
-9.83117728999143E-12));
#40=AXIS2_PLACEMENT_3D('',#10,#20,#30);
#50=PLANE('',#40);
#60=CARTESIAN_POINT('',(133.495498672808,100.100157854855,
1.52775648865328));
#70=DIRECTION('',(0.342020143320634,-0.939692620787741,
-1.23487237872055E-12));
#80=VECTOR('',#70,1.);
#90=LINE('',#60,#80);
#100=CARTESIAN_POINT('',(122.733760495505,129.667790491571,
1.52775648869214));
#110=VERTEX_POINT('',#100);
#120=CARTESIAN_POINT('',(126.78355295709,118.541077149703,
1.52775648867752));
#130=VERTEX_POINT('',#120);
#140=EDGE_CURVE('',#110,#130,#90,.T.);
#150=ORIENTED_EDGE('',*,*,#140,.T.);
#160=CARTESIAN_POINT('',(122.733760495562,129.667790491571,
-0.47224351130786));
#170=DIRECTION('',(2.86954983051146E-11,1.14127654260579E-13,-1.));
#180=VECTOR('',#170,1.);
#190=LINE('',#160,#180);
#200=CARTESIAN_POINT('',(122.733760495568,129.667790491571,
-0.672243511307861));
#210=VERTEX_POINT('',#200);
#220=EDGE_CURVE('',#110,#210,#190,.T.);
#230=ORIENTED_EDGE('',*,*,#220,.F.);
#240=CARTESIAN_POINT('',(133.495498672864,100.100157854858,
-0.672243511346716));
#250=DIRECTION('',(-0.342020143320634,0.939692620787741,
1.23487237872055E-12));
#260=VECTOR('',#250,1.);
#270=LINE('',#240,#260);
#280=CARTESIAN_POINT('',(126.783552957091,118.541077149872,
-0.672243511322483));
#290=VERTEX_POINT('',#280);
#300=EDGE_CURVE('',#290,#210,#270,.T.);
#310=ORIENTED_EDGE('',*,*,#300,.T.);
#320=CARTESIAN_POINT('',(126.783552957091,118.541077149857,
-0.472243511322482));
#330=DIRECTION('',(7.29514797489775E-13,7.69500358555812E-11,-1.));
#340=VECTOR('',#330,1.);
#350=LINE('',#320,#340);
#360=EDGE_CURVE('',#130,#290,#350,.T.);
#370=ORIENTED_EDGE('',*,*,#360,.T.);
#380=EDGE_LOOP('',(#370,#310,#230,#150));
#390=FACE_OUTER_BOUND('',#380,.T.);
#400=ADVANCED_FACE('',(#390),#50,.F.);
#410=COLOUR_RGB('',0.,0.443137288093567,0.709803938865662);
#420=FILL_AREA_STYLE_COLOUR('',#410);
#430=FILL_AREA_STYLE('',(#420));
#440=SURFACE_STYLE_FILL_AREA(#430);
#450=SURFACE_SIDE_STYLE('',(#440));
#460=SURFACE_STYLE_USAGE(.BOTH.,#450);
#470=PRESENTATION_STYLE_ASSIGNMENT((#460));
#480=CARTESIAN_POINT('',(126.491518333087,102.366321432796,
-10.7722435114548));
#490=DIRECTION('',(0.912255234021138,-0.409622250373486,
1.86262503968461E-14));
#500=DIRECTION('',(-0.409622250373486,-0.912255234021138,
-1.74006079162964E-12));
#510=AXIS2_PLACEMENT_3D('',#480,#490,#500);
#520=PLANE('',#510);
#530=CARTESIAN_POINT('',(125.473962072462,100.100157854855,
1.52775648864743));
#540=DIRECTION('',(-0.409622250373486,-0.912255234021138,
-1.74007807863366E-12));
#550=VECTOR('',#540,1.);
#560=LINE('',#530,#550);
#570=CARTESIAN_POINT('',(126.783552957089,103.016701420744,
1.52775648865299));
#580=VERTEX_POINT('',#570);
#590=CARTESIAN_POINT('',(126.065607508503,101.417790490937,
1.52775648864994));
#600=VERTEX_POINT('',#590);
#610=EDGE_CURVE('',#580,#600,#560,.T.);
#620=ORIENTED_EDGE('',*,*,#610,.T.);
#630=CARTESIAN_POINT('',(126.783552957091,103.016701420747,
-0.472243511347006));
#640=DIRECTION('',(-7.29514797487214E-13,-1.57920484377234E-12,1.));
#650=VECTOR('',#640,1.);
#660=LINE('',#630,#650);
#670=CARTESIAN_POINT('',(126.783552957091,103.016701420747,
-0.672243511347007));
#680=VERTEX_POINT('',#670);
#690=EDGE_CURVE('',#680,#580,#660,.T.);
#700=ORIENTED_EDGE('',*,*,#690,.T.);
#710=CARTESIAN_POINT('',(125.473962072464,100.100157854858,
-0.67224351135257));
#720=DIRECTION('',(0.409622250373486,0.912255234021138,
1.74007807863366E-12));
#730=VECTOR('',#720,1.);
#740=LINE('',#710,#730);
#750=CARTESIAN_POINT('',(126.065607508505,101.41779049094,
-0.672243511350057));
#760=VERTEX_POINT('',#750);
#770=EDGE_CURVE('',#760,#680,#740,.T.);
#780=ORIENTED_EDGE('',*,*,#770,.T.);
#790=CARTESIAN_POINT('',(126.065607508505,101.41779049094,
-0.472243511350056));
#800=DIRECTION('',(7.29759511668716E-13,1.57974983807553E-12,-1.));
#810=VECTOR('',#800,1.);
#820=LINE('',#790,#810);
#830=EDGE_CURVE('',#600,#760,#820,.T.);
#840=ORIENTED_EDGE('',*,*,#830,.T.);
#850=EDGE_LOOP('',(#840,#780,#700,#620));
#860=FACE_OUTER_BOUND('',#850,.T.);
#870=ADVANCED_FACE('',(#860),#520,.T.);
#880=COLOUR_RGB('',0.,0.443137288093567,0.709803938865662);
#890=FILL_AREA_STYLE_COLOUR('',#880);
#900=FILL_AREA_STYLE('',(#890));
#910=SURFACE_STYLE_FILL_AREA(#900);
#920=SURFACE_SIDE_STYLE('',(#910));
#930=SURFACE_STYLE_USAGE(.BOTH.,#920);
#940=PRESENTATION_STYLE_ASSIGNMENT((#930));
#950=CARTESIAN_POINT('',(96.8835529573906,102.134572000491,
-0.472243511478316));
#960=DIRECTION('',(-1.,2.69229083914154E-14,-7.29759511668665E-13));
#970=DIRECTION('',(2.69229083902625E-14,1.,1.57974983807555E-12));
#980=AXIS2_PLACEMENT_3D('',#950,#960,#970);
#990=PLANE('',#980);
#1000=CARTESIAN_POINT('',(96.8835529573349,100.100157854858,
-0.672243511373436));
#1010=DIRECTION('',(2.69229083902625E-14,1.,1.57974983807555E-12));
#1020=VECTOR('',#1010,1.);
#1030=LINE('',#1000,#1020);
#1040=CARTESIAN_POINT('',(96.8835529573907,103.016701421496,
-0.672243511368828));
#1050=VERTEX_POINT('',#1040);
#1060=CARTESIAN_POINT('',(96.8835529573911,118.541077149299,
-0.672243511344303));
#1070=VERTEX_POINT('',#1060);
#1080=EDGE_CURVE('',#1050,#1070,#1030,.T.);
#1090=ORIENTED_EDGE('',*,*,#1080,.F.);
#1100=CARTESIAN_POINT('',(96.883552957391,118.541077149284,
-0.472243511344303));
#1110=DIRECTION('',(-7.29759511670737E-13,-7.6949166983511E-11,1.));
#1120=VECTOR('',#1110,1.);
#1130=LINE('',#1100,#1120);
#1140=CARTESIAN_POINT('',(96.8835529573896,118.54107714913,
1.5277564886557));
#1150=VERTEX_POINT('',#1140);
#1160=EDGE_CURVE('',#1070,#1150,#1130,.T.);
#1170=ORIENTED_EDGE('',*,*,#1160,.F.);
#1180=CARTESIAN_POINT('',(96.8835529573334,100.100157854855,
1.52775648862656));
#1190=DIRECTION('',(-2.69229083902625E-14,-1.,-1.57974983807555E-12));
#1200=VECTOR('',#1190,1.);
#1210=LINE('',#1180,#1200);
#1220=CARTESIAN_POINT('',(96.8835529573891,103.016701421493,
1.52775648863117));
#1230=VERTEX_POINT('',#1220);
#1240=EDGE_CURVE('',#1150,#1230,#1210,.T.);
#1250=ORIENTED_EDGE('',*,*,#1240,.F.);
#1260=CARTESIAN_POINT('',(96.8835529573906,103.016701421496,
-0.472243511368827));
#1270=DIRECTION('',(-7.29759511668708E-13,-1.57984382534192E-12,1.));
#1280=VECTOR('',#1270,1.);
#1290=LINE('',#1260,#1280);
#1300=EDGE_CURVE('',#1050,#1230,#1290,.T.);
#1310=ORIENTED_EDGE('',*,*,#1300,.T.);
#1320=EDGE_LOOP('',(#1310,#1250,#1170,#1090));
#1330=FACE_OUTER_BOUND('',#1320,.T.);
#1340=ADVANCED_FACE('',(#1330),#990,.T.);
#1350=COLOUR_RGB('',0.,0.443137288093567,0.709803938865662);
#1360=FILL_AREA_STYLE_COLOUR('',#1350);
#1370=FILL_AREA_STYLE('',(#1360));
#1380=SURFACE_STYLE_FILL_AREA(#1370);
#1390=SURFACE_SIDE_STYLE('',(#1380));
#1400=SURFACE_STYLE_USAGE(.BOTH.,#1390);
#1410=PRESENTATION_STYLE_ASSIGNMENT((#1400));
#1420=CARTESIAN_POINT('',(96.8835529573136,103.016701421675,
-2.65224591145253));
#1430=DIRECTION('',(0.912255234021138,0.409622250373486,
1.3128661170717E-12));
#1440=DIRECTION('',(0.409622250373486,-0.912255234021138,
-1.14219203782324E-12));
#1450=AXIS2_PLACEMENT_3D('',#1420,#1430,#1440);
#1460=PLANE('',#1450);
#1470=CARTESIAN_POINT('',(98.1931438421818,100.100157854855,
1.52775648862752));
#1480=DIRECTION('',(-0.409622250373486,0.912255234021138,
1.14219203782324E-12));
#1490=VECTOR('',#1480,1.);
#1500=LINE('',#1470,#1490);
#1510=CARTESIAN_POINT('',(97.6014984063114,101.417790490937,
1.52775648862917));
#1520=VERTEX_POINT('',#1510);
#1530=EDGE_CURVE('',#1520,#1230,#1500,.T.);
#1540=ORIENTED_EDGE('',*,*,#1530,.T.);
#1550=CARTESIAN_POINT('',(97.6014984063128,101.41779049094,
-0.472243511370829));
#1560=DIRECTION('',(7.29801713975833E-13,1.57974983807553E-12,-1.));
#1570=VECTOR('',#1560,1.);
#1580=LINE('',#1550,#1570);
#1590=CARTESIAN_POINT('',(97.601498406313,101.417790490941,
-0.67224351137083));
#1600=VERTEX_POINT('',#1590);
#1610=EDGE_CURVE('',#1520,#1600,#1580,.T.);
#1620=ORIENTED_EDGE('',*,*,#1610,.F.);
#1630=CARTESIAN_POINT('',(98.1931438421833,100.100157854858,
-0.67224351137248));
#1640=DIRECTION('',(0.409622250373486,-0.912255234021138,
-1.14219203782324E-12));
#1650=VECTOR('',#1640,1.);
#1660=LINE('',#1630,#1650);
#1670=EDGE_CURVE('',#1050,#1600,#1660,.T.);
#1680=ORIENTED_EDGE('',*,*,#1670,.T.);
#1690=ORIENTED_EDGE('',*,*,#1300,.F.);
#1700=EDGE_LOOP('',(#1690,#1680,#1620,#1540));
#1710=FACE_OUTER_BOUND('',#1700,.T.);
#1720=ADVANCED_FACE('',(#1710),#1460,.F.);
#1730=COLOUR_RGB('',0.,0.443137288093567,0.709803938865662);
#1740=FILL_AREA_STYLE_COLOUR('',#1730);
#1750=FILL_AREA_STYLE('',(#1740));
#1760=SURFACE_STYLE_FILL_AREA(#1750);
#1770=SURFACE_SIDE_STYLE('',(#1760));
#1780=SURFACE_STYLE_USAGE(.BOTH.,#1770);
#1790=PRESENTATION_STYLE_ASSIGNMENT((#1780));
#1800=CARTESIAN_POINT('',(126.508552743548,101.41779049094,
-0.472243511349733));
#1810=DIRECTION('',(-1.34614541281717E-14,-1.,-1.57974983807554E-12));
#1820=DIRECTION('',(-1.,1.34614541293246E-14,-7.29801713975811E-13));
#1830=AXIS2_PLACEMENT_3D('',#1800,#1810,#1820);
#1840=PLANE('',#1830);
#1850=CARTESIAN_POINT('',(120.367032128099,101.41779049094,
-0.672243511354216));
#1860=DIRECTION('',(-1.,1.34614541293246E-14,-7.29801713975811E-13));
#1870=VECTOR('',#1860,1.);
#1880=LINE('',#1850,#1870);
#1890=EDGE_CURVE('',#760,#1600,#1880,.T.);
#1900=ORIENTED_EDGE('',*,*,#1890,.F.);
#1910=ORIENTED_EDGE('',*,*,#1610,.T.);
#1920=CARTESIAN_POINT('',(120.367032128098,101.417790490937,
1.52775648864578));
#1930=DIRECTION('',(1.,-1.34614541293246E-14,7.29801713975811E-13));
#1940=VECTOR('',#1930,1.);
#1950=LINE('',#1920,#1940);
#1960=EDGE_CURVE('',#1520,#600,#1950,.T.);
#1970=ORIENTED_EDGE('',*,*,#1960,.F.);
#1980=ORIENTED_EDGE('',*,*,#830,.F.);
#1990=EDGE_LOOP('',(#1980,#1970,#1910,#1900));
#2000=FACE_OUTER_BOUND('',#1990,.T.);
#2010=ADVANCED_FACE('',(#2000),#1840,.T.);
#2020=COLOUR_RGB('',0.,0.443137288093567,0.709803938865662);
#2030=FILL_AREA_STYLE_COLOUR('',#2020);
#2040=FILL_AREA_STYLE('',(#2030));
#2050=SURFACE_STYLE_FILL_AREA(#2040);
#2060=SURFACE_SIDE_STYLE('',(#2050));
#2070=SURFACE_STYLE_USAGE(.BOTH.,#2060);
#2080=PRESENTATION_STYLE_ASSIGNMENT((#2070));
#2090=CARTESIAN_POINT('',(101.384806811423,130.90817047268,
-0.572243511177718));
#2100=DIRECTION('',(-0.939692620787721,0.342020143320689,
2.56324154920415E-11));
#2110=DIRECTION('',(0.34202014332069,0.939692620787721,
-9.33196791995831E-12));
#2120=AXIS2_PLACEMENT_3D('',#2090,#2100,#2110);
#2130=PLANE('',#2120);
#2140=CARTESIAN_POINT('',(90.1716072418255,100.100157854858,
-0.672243511378334));
#2150=DIRECTION('',(0.342020143320689,0.939692620787721,
1.73408615233988E-12));
#2160=VECTOR('',#2150,1.);
#2170=LINE('',#2140,#2160);
#2180=CARTESIAN_POINT('',(100.933345419124,129.667790491571,
-0.672243511323771));
#2190=VERTEX_POINT('',#2180);
#2200=EDGE_CURVE('',#1070,#2190,#2170,.T.);
#2210=ORIENTED_EDGE('',*,*,#2200,.F.);
#2220=CARTESIAN_POINT('',(100.93334541913,129.667790491571,
-0.47224351132377));
#2230=DIRECTION('',(2.72359077523883E-11,-1.14127654260622E-13,1.));
#2240=VECTOR('',#2230,1.);
#2250=LINE('',#2220,#2240);
#2260=CARTESIAN_POINT('',(100.933345419184,129.667790491571,
1.52775648867623));
#2270=VERTEX_POINT('',#2260);
#2280=EDGE_CURVE('',#2190,#2270,#2250,.T.);
#2290=ORIENTED_EDGE('',*,*,#2280,.F.);
#2300=CARTESIAN_POINT('',(90.1716072418789,100.100157854855,
1.52775648862167));
#2310=DIRECTION('',(-0.342020143320689,-0.939692620787721,
-1.73408615233988E-12));
#2320=VECTOR('',#2310,1.);
#2330=LINE('',#2300,#2320);
#2340=EDGE_CURVE('',#2270,#1150,#2330,.T.);
#2350=ORIENTED_EDGE('',*,*,#2340,.F.);
#2360=ORIENTED_EDGE('',*,*,#1160,.T.);
#2370=EDGE_LOOP('',(#2360,#2350,#2290,#2210));
#2380=FACE_OUTER_BOUND('',#2370,.T.);
#2390=ADVANCED_FACE('',(#2380),#2130,.T.);
#2400=COLOUR_RGB('',0.,0.443137288093567,0.709803938865662);
#2410=FILL_AREA_STYLE_COLOUR('',#2400);
#2420=FILL_AREA_STYLE('',(#2410));
#2430=SURFACE_STYLE_FILL_AREA(#2420);
#2440=SURFACE_SIDE_STYLE('',(#2430));
#2450=SURFACE_STYLE_USAGE(.BOTH.,#2440);
#2460=PRESENTATION_STYLE_ASSIGNMENT((#2450));
#2470=CARTESIAN_POINT('',(110.862217046242,115.330290491256,
-0.672243511339174));
#2480=DIRECTION('',(7.29801713975833E-13,1.57974983807553E-12,-1.));
#2490=DIRECTION('',(-1.,-4.58996013849548E-34,-7.29801713975833E-13));
#2500=AXIS2_PLACEMENT_3D('',#2470,#2480,#2490);
#2510=PLANE('',#2500);
#2520=CARTESIAN_POINT('',(126.783552957335,100.100157854858,
-0.672243511351615));
#2530=DIRECTION('',(3.39450690210167E-14,1.,1.57974983807556E-12));
#2540=VECTOR('',#2530,1.);
#2550=LINE('',#2520,#2540);
#2560=EDGE_CURVE('',#680,#290,#2550,.T.);
#2570=ORIENTED_EDGE('',*,*,#2560,.F.);
#2580=ORIENTED_EDGE('',*,*,#300,.F.);
#2590=CARTESIAN_POINT('',(120.367032128099,129.667790491571,
-0.672243511309588));
#2600=DIRECTION('',(-1.,7.4940049737097E-16,-7.29801713975831E-13));
#2610=VECTOR('',#2600,1.);
#2620=LINE('',#2590,#2610);
#2630=EDGE_CURVE('',#210,#2190,#2620,.T.);
#2640=ORIENTED_EDGE('',*,*,#2630,.F.);
#2650=ORIENTED_EDGE('',*,*,#2200,.T.);
#2660=ORIENTED_EDGE('',*,*,#1080,.T.);
#2670=ORIENTED_EDGE('',*,*,#1670,.F.);
#2680=ORIENTED_EDGE('',*,*,#1890,.T.);
#2690=ORIENTED_EDGE('',*,*,#770,.F.);
#2700=EDGE_LOOP('',(#2690,#2680,#2670,#2660,#2650,#2640,#2580,#2570));
#2710=FACE_OUTER_BOUND('',#2700,.T.);
#2720=ADVANCED_FACE('',(#2710),#2510,.T.);
#2730=COLOUR_RGB('',0.,0.443137288093567,0.709803938865662);
#2740=FILL_AREA_STYLE_COLOUR('',#2730);
#2750=FILL_AREA_STYLE('',(#2740));
#2760=SURFACE_STYLE_FILL_AREA(#2750);
#2770=SURFACE_SIDE_STYLE('',(#2760));
#2780=SURFACE_STYLE_USAGE(.BOTH.,#2770);
#2790=PRESENTATION_STYLE_ASSIGNMENT((#2780));
#2800=CARTESIAN_POINT('',(111.833552957334,129.055290491571,
1.52775648868322));
#2810=DIRECTION('',(-7.29801713975833E-13,-1.57974983807553E-12,1.));
#2820=DIRECTION('',(1.,0.,7.29801713975833E-13));
#2830=AXIS2_PLACEMENT_3D('',#2800,#2810,#2820);
#2840=PLANE('',#2830);
#2850=ORIENTED_EDGE('',*,*,#1240,.T.);
#2860=ORIENTED_EDGE('',*,*,#2340,.T.);
#2870=CARTESIAN_POINT('',(120.367032128098,129.667790491571,
1.52775648869041));
#2880=DIRECTION('',(1.,-7.4940049737097E-16,7.29801713975831E-13));
#2890=VECTOR('',#2880,1.);
#2900=LINE('',#2870,#2890);
#2910=EDGE_CURVE('',#2270,#110,#2900,.T.);
#2920=ORIENTED_EDGE('',*,*,#2910,.F.);
#2930=ORIENTED_EDGE('',*,*,#140,.F.);
#2940=CARTESIAN_POINT('',(126.783552957333,100.100157854855,
1.52775648864839));
#2950=DIRECTION('',(-3.39450690210167E-14,-1.,-1.57974983807556E-12));
#2960=VECTOR('',#2950,1.);
#2970=LINE('',#2940,#2960);
#2980=EDGE_CURVE('',#130,#580,#2970,.T.);
#2990=ORIENTED_EDGE('',*,*,#2980,.F.);
#3000=ORIENTED_EDGE('',*,*,#610,.F.);
#3010=ORIENTED_EDGE('',*,*,#1960,.T.);
#3020=ORIENTED_EDGE('',*,*,#1530,.F.);
#3030=EDGE_LOOP('',(#3020,#3010,#3000,#2990,#2930,#2920,#2860,#2850));
#3040=FACE_OUTER_BOUND('',#3030,.T.);
#3050=ADVANCED_FACE('',(#3040),#2840,.T.);
#3060=COLOUR_RGB('',0.,0.443137288093567,0.709803938865662);
#3070=FILL_AREA_STYLE_COLOUR('',#3060);
#3080=FILL_AREA_STYLE('',(#3070));
#3090=SURFACE_STYLE_FILL_AREA(#3080);
#3100=SURFACE_SIDE_STYLE('',(#3090));
#3110=SURFACE_STYLE_USAGE(.BOTH.,#3100);
#3120=PRESENTATION_STYLE_ASSIGNMENT((#3110));
#3130=CARTESIAN_POINT('',(126.783552957091,102.13457200049,
-0.472243511456488));
#3140=DIRECTION('',(-1.,3.39450690221691E-14,-7.2951479748716E-13));
#3150=DIRECTION('',(3.39450690210167E-14,1.,1.57974983807556E-12));
#3160=AXIS2_PLACEMENT_3D('',#3130,#3140,#3150);
#3170=PLANE('',#3160);
#3180=ORIENTED_EDGE('',*,*,#2980,.T.);
#3190=ORIENTED_EDGE('',*,*,#360,.F.);
#3200=ORIENTED_EDGE('',*,*,#2560,.T.);
#3210=ORIENTED_EDGE('',*,*,#690,.F.);
#3220=EDGE_LOOP('',(#3210,#3200,#3190,#3180));
#3230=FACE_OUTER_BOUND('',#3220,.T.);
#3240=ADVANCED_FACE('',(#3230),#3170,.F.);
#3250=COLOUR_RGB('',0.,0.443137288093567,0.709803938865662);
#3260=FILL_AREA_STYLE_COLOUR('',#3250);
#3270=FILL_AREA_STYLE('',(#3260));
#3280=SURFACE_STYLE_FILL_AREA(#3270);
#3290=SURFACE_SIDE_STYLE('',(#3280));
#3300=SURFACE_STYLE_USAGE(.BOTH.,#3290);
#3310=PRESENTATION_STYLE_ASSIGNMENT((#3300));
#3320=CARTESIAN_POINT('',(114.463753957315,129.667790491571,
-1.42224351138291));
#3330=DIRECTION('',(-7.49400497287679E-16,-1.,-1.14127654260601E-13));
#3340=DIRECTION('',(-1.,7.49400497366582E-16,-6.91353088537624E-13));
#3350=AXIS2_PLACEMENT_3D('',#3320,#3330,#3340);
#3360=PLANE('',#3350);
#3370=ORIENTED_EDGE('',*,*,#2910,.T.);
#3380=ORIENTED_EDGE('',*,*,#2280,.T.);
#3390=ORIENTED_EDGE('',*,*,#2630,.T.);
#3400=ORIENTED_EDGE('',*,*,#220,.T.);
#3410=EDGE_LOOP('',(#3400,#3390,#3380,#3370));
#3420=FACE_OUTER_BOUND('',#3410,.T.);
#3430=ADVANCED_FACE('',(#3420),#3360,.F.);
#3440=COLOUR_RGB('',0.,0.443137288093567,0.709803938865662);
#3450=FILL_AREA_STYLE_COLOUR('',#3440);
#3460=FILL_AREA_STYLE('',(#3450));
#3470=SURFACE_STYLE_FILL_AREA(#3460);
#3480=SURFACE_SIDE_STYLE('',(#3470));
#3490=SURFACE_STYLE_USAGE(.BOTH.,#3480);
#3500=PRESENTATION_STYLE_ASSIGNMENT((#3490));
#3510=CLOSED_SHELL('',(#400,#870,#1340,#1720,#2010,#2390,#2720,#3050,
#3240,#3430));
#3520=MANIFOLD_SOLID_BREP('',#3510);
#3530=CARTESIAN_POINT('',(0.,0.,0.));
#3540=DIRECTION('',(0.,0.,1.));
#3550=DIRECTION('',(1.,0.,0.));
#3560=AXIS2_PLACEMENT_3D('',#3530,#3540,#3550);
#3570=APPLICATION_CONTEXT(' ');
#3580=APPLICATION_PROTOCOL_DEFINITION(' ','automotive_design',1998,#3570
);
#3590=PRODUCT_CONTEXT('',#3570,'mechanical');
#3600=PRODUCT_DEFINITION_CONTEXT('part definition',#3570,'design');
#3610=PRODUCT('D-MUT_2.5_4_BU-select','D-MUT_2.5_4_BU-select','',(#3590)
);
#3620=PRODUCT_RELATED_PRODUCT_CATEGORY('part',' ',(#3610));
#3630=PRODUCT_DEFINITION_FORMATION_WITH_SPECIFIED_SOURCE('','',#3610,
.BOUGHT.);
#3640=PRODUCT_DEFINITION('',' ',#3630,#3600);
#3650=PRODUCT_DEFINITION_SHAPE('','',#3640);
#3660=DIMENSIONAL_EXPONENTS(1.,0.,0.,0.,0.,0.,0.);
#3670=DIMENSIONAL_EXPONENTS(0.,0.,0.,0.,0.,0.,0.);
#3680=DIMENSIONAL_EXPONENTS(0.,0.,0.,0.,0.,0.,0.);
#3690=(LENGTH_UNIT() NAMED_UNIT(*) SI_UNIT(.MILLI.,.METRE.));
#3700=(NAMED_UNIT(*) PLANE_ANGLE_UNIT() SI_UNIT($,.RADIAN.));
#3710=(NAMED_UNIT(*) SI_UNIT($,.STERADIAN.) SOLID_ANGLE_UNIT());
#3720=(GEOMETRIC_REPRESENTATION_CONTEXT(3) 
GLOBAL_UNCERTAINTY_ASSIGNED_CONTEXT((#3730)) 
GLOBAL_UNIT_ASSIGNED_CONTEXT((#3690,#3700,#3710)) REPRESENTATION_CONTEXT
('',''));
#3730=UNCERTAINTY_MEASURE_WITH_UNIT(LENGTH_MEASURE(1.E-6),#3690,
'distance_accuracy_value','maximum gap value');
#3740=ADVANCED_BREP_SHAPE_REPRESENTATION('',(#3560,#3520),#3720);
#3750=SHAPE_DEFINITION_REPRESENTATION(#3650,#3740);
#3760=COLOUR_RGB('',0.,0.443137288093567,0.709803938865662);
#3770=FILL_AREA_STYLE_COLOUR('',#3760);
#3780=FILL_AREA_STYLE('',(#3770));
#3790=SURFACE_STYLE_FILL_AREA(#3780);
#3800=SURFACE_SIDE_STYLE('',(#3790));
#3810=SURFACE_STYLE_USAGE(.BOTH.,#3800);
#3820=PRESENTATION_STYLE_ASSIGNMENT((#3810));
#3830=STYLED_ITEM('',(#3820),#3520);
#3840=OVER_RIDING_STYLED_ITEM('',(#470),#400,#3830);
#3850=OVER_RIDING_STYLED_ITEM('',(#940),#870,#3830);
#3860=OVER_RIDING_STYLED_ITEM('',(#1410),#1340,#3830);
#3870=OVER_RIDING_STYLED_ITEM('',(#1790),#1720,#3830);
#3880=OVER_RIDING_STYLED_ITEM('',(#2080),#2010,#3830);
#3890=OVER_RIDING_STYLED_ITEM('',(#2460),#2390,#3830);
#3900=OVER_RIDING_STYLED_ITEM('',(#2790),#2720,#3830);
#3910=OVER_RIDING_STYLED_ITEM('',(#3120),#3050,#3830);
#3920=OVER_RIDING_STYLED_ITEM('',(#3310),#3240,#3830);
#3930=OVER_RIDING_STYLED_ITEM('',(#3500),#3430,#3830);
#3940=DRAUGHTING_MODEL('',(#3830,#3840,#3850,#3860,#3870,#3880,#3890,
#3900,#3910,#3920,#3930),#3720);
#3950=CARTESIAN_POINT('',(0.672243511531943,-96.8835529573892,
-101.417790490941));
#3960=DIRECTION('',(1.,-2.11464722409985E-26,1.57974983807553E-12));
#3970=DIRECTION('',(2.15239444120292E-40,1.,1.33859625944061E-14));
#3980=AXIS2_PLACEMENT_3D('',#3950,#3960,#3970);
#3990=ITEM_DEFINED_TRANSFORMATION('D-MUT_2.5_4_BU-select','',#3560,#3980
);
#4000=APPLICATION_CONTEXT(' ');
#4010=APPLICATION_PROTOCOL_DEFINITION(' ','automotive_design',1998,#4000
);
#4020=PRODUCT_CONTEXT('',#4000,'mechanical');
#4030=PRODUCT_DEFINITION_CONTEXT('part definition',#4000,'design');
#4040=PRODUCT('D-MUT_2.5_4_BU-select','D-MUT_2.5_4_BU-select','',(#4020)
);
#4050=PRODUCT_RELATED_PRODUCT_CATEGORY('part',' ',(#4040));
#4060=PRODUCT_DEFINITION_FORMATION_WITH_SPECIFIED_SOURCE('','',#4040,
.BOUGHT.);
#4070=PRODUCT_DEFINITION('',' ',#4060,#4030);
#4080=PRODUCT_DEFINITION_SHAPE('','',#4070);
#4090=DIMENSIONAL_EXPONENTS(1.,0.,0.,0.,0.,0.,0.);
#4100=DIMENSIONAL_EXPONENTS(0.,0.,0.,0.,0.,0.,0.);
#4110=DIMENSIONAL_EXPONENTS(0.,0.,0.,0.,0.,0.,0.);
#4120=(LENGTH_UNIT() NAMED_UNIT(*) SI_UNIT(.MILLI.,.METRE.));
#4130=(NAMED_UNIT(*) PLANE_ANGLE_UNIT() SI_UNIT($,.RADIAN.));
#4140=(NAMED_UNIT(*) SI_UNIT($,.STERADIAN.) SOLID_ANGLE_UNIT());
#4150=(GEOMETRIC_REPRESENTATION_CONTEXT(3) 
GLOBAL_UNCERTAINTY_ASSIGNED_CONTEXT((#4160)) 
GLOBAL_UNIT_ASSIGNED_CONTEXT((#4120,#4130,#4140)) REPRESENTATION_CONTEXT
('',''));
#4160=UNCERTAINTY_MEASURE_WITH_UNIT(LENGTH_MEASURE(1.E-6),#4120,
'distance_accuracy_value','maximum gap value');
#4170=SHAPE_REPRESENTATION('',(#3560,#3980),#4150);
#4180=SHAPE_DEFINITION_REPRESENTATION(#4080,#4170);
#4190=(REPRESENTATION_RELATIONSHIP('','',#3740,#4170) 
REPRESENTATION_RELATIONSHIP_WITH_TRANSFORMATION(#3990) 
SHAPE_REPRESENTATION_RELATIONSHIP());
#4200=NEXT_ASSEMBLY_USAGE_OCCURRENCE('1','','D-MUT_2.5_4_BU-select',
#4070,#3640,'');
#4210=PRODUCT_DEFINITION_SHAPE('','',#4200);
#4220=CONTEXT_DEPENDENT_SHAPE_REPRESENTATION(#4190,#4210);
ENDSEC;
END-ISO-10303-21;
