ISO-10303-21;
HEADER;
FILE_DESCRIPTION(('STEP AP242'),'1');
FILE_NAME('42540.stp','2020-06-03T13:21:50',('TraceParts'),('TraceParts S.A.'),'Spatial InterOp 3D',' ',' ');
FILE_SCHEMA(('AP242_MANAGED_MODEL_BASED_3D_ENGINEERING_MIM_LF  {1 0 10303 442 1 1 4}'));
ENDSEC;
DATA;
#1=PRODUCT_DEFINITION_CONTEXT('',#9,'design');
#2=APPLICATION_PROTOCOL_DEFINITION('INTERNATIONAL STANDARD','ap242_managed_model_based_3d_engineering',2014,#9);
#3=PRODUCT_CATEGORY_RELATIONSHIP('NONE','NONE',#10,#11);
#4=SHAPE_DEFINITION_REPRESENTATION(#12,#13);
#5= (GEOMETRIC_REPRESENTATION_CONTEXT(3)GLOBAL_UNCERTAINTY_ASSIGNED_CONTEXT((#16))GLOBAL_UNIT_ASSIGNED_CONTEXT((#18,#19,#20))REPRESENTATION_CONTEXT('NONE','WORKSPACE'));
#9=APPLICATION_CONTEXT('managed model based 3d engineering');
#10=PRODUCT_CATEGORY('part','NONE');
#11=PRODUCT_RELATED_PRODUCT_CATEGORY('detail',' ',(#22));
#12=PRODUCT_DEFINITION_SHAPE('NONE','NONE',#23);
#13=ADVANCED_BREP_SHAPE_REPRESENTATION('42540',(#24,#25),#5);
#16=UNCERTAINTY_MEASURE_WITH_UNIT(LENGTH_MEASURE(1.0E-06),#18,'','');
#18= (CONVERSION_BASED_UNIT('MILLIMETRE',#28)LENGTH_UNIT()NAMED_UNIT(#31));
#19= (NAMED_UNIT(#33)PLANE_ANGLE_UNIT()SI_UNIT($,.RADIAN.));
#20= (NAMED_UNIT(#33)SOLID_ANGLE_UNIT()SI_UNIT($,.STERADIAN.));
#22=PRODUCT('42540','42540','PART-42540-DESC',(#39));
#23=PRODUCT_DEFINITION('','NONE',#40,#1);
#24=MANIFOLD_SOLID_BREP('42540',#41);
#25=AXIS2_PLACEMENT_3D('',#42,#43,#44);
#28=LENGTH_MEASURE_WITH_UNIT(LENGTH_MEASURE(1.0),#45);
#31=DIMENSIONAL_EXPONENTS(1.0,0.0,0.0,0.0,0.0,0.0,0.0);
#33=DIMENSIONAL_EXPONENTS(0.0,0.0,0.0,0.0,0.0,0.0,0.0);
#39=PRODUCT_CONTEXT('',#9,'mechanical');
#40=PRODUCT_DEFINITION_FORMATION_WITH_SPECIFIED_SOURCE(' ','NONE',#22,.NOT_KNOWN.);
#41=CLOSED_SHELL('',(#46,#47,#48,#49,#50,#51,#52,#53,#54,#55,#56,#57,#58,#59,#60,#61,#62));
#42=CARTESIAN_POINT('',(0.0,0.0,0.0));
#43=DIRECTION('',(0.0,0.0,1.0));
#44=DIRECTION('',(1.0,0.0,0.0));
#45= (NAMED_UNIT(#31)LENGTH_UNIT()SI_UNIT(.MILLI.,.METRE.));
#46=ADVANCED_FACE('NONE',(#64),#65,.F.);
#47=ADVANCED_FACE('NONE',(#66),#67,.F.);
#48=ADVANCED_FACE('NONE',(#68),#69,.F.);
#49=ADVANCED_FACE('NONE',(#70),#71,.F.);
#50=ADVANCED_FACE('NONE',(#72),#73,.F.);
#51=ADVANCED_FACE('NONE',(#74),#75,.F.);
#52=ADVANCED_FACE('NONE',(#76),#77,.F.);
#53=ADVANCED_FACE('NONE',(#78),#79,.F.);
#54=ADVANCED_FACE('NONE',(#80,#81),#82,.T.);
#55=ADVANCED_FACE('NONE',(#83),#84,.F.);
#56=ADVANCED_FACE('NONE',(#85),#86,.F.);
#57=ADVANCED_FACE('NONE',(#87),#88,.F.);
#58=ADVANCED_FACE('NONE',(#89),#90,.T.);
#59=ADVANCED_FACE('NONE',(#91),#92,.F.);
#60=ADVANCED_FACE('NONE',(#93),#94,.T.);
#61=ADVANCED_FACE('NONE',(#95),#96,.F.);
#62=ADVANCED_FACE('NONE',(#97),#98,.T.);
#64=FACE_OUTER_BOUND('',#99,.T.);
#65=CYLINDRICAL_SURFACE('',#100,6.1728);
#66=FACE_OUTER_BOUND('',#101,.T.);
#67=PLANE('',#102);
#68=FACE_OUTER_BOUND('',#103,.T.);
#69=PLANE('',#104);
#70=FACE_OUTER_BOUND('',#105,.T.);
#71=PLANE('',#106);
#72=FACE_OUTER_BOUND('',#107,.T.);
#73=PLANE('',#108);
#74=FACE_OUTER_BOUND('',#109,.T.);
#75=PLANE('',#110);
#76=FACE_OUTER_BOUND('',#111,.T.);
#77=PLANE('',#112);
#78=FACE_OUTER_BOUND('',#113,.T.);
#79=PLANE('',#114);
#80=FACE_OUTER_BOUND('',#115,.T.);
#81=FACE_BOUND('',#116,.T.);
#82=PLANE('',#117);
#83=FACE_OUTER_BOUND('',#118,.T.);
#84=PLANE('',#119);
#85=FACE_OUTER_BOUND('',#120,.T.);
#86=PLANE('',#121);
#87=FACE_OUTER_BOUND('',#122,.T.);
#88=PLANE('',#123);
#89=FACE_OUTER_BOUND('',#124,.T.);
#90=PLANE('',#125);
#91=FACE_OUTER_BOUND('',#126,.T.);
#92=PLANE('',#127);
#93=FACE_OUTER_BOUND('',#128,.T.);
#94=PLANE('',#129);
#95=FACE_OUTER_BOUND('',#130,.T.);
#96=CYLINDRICAL_SURFACE('',#131,6.1728);
#97=FACE_OUTER_BOUND('',#132,.T.);
#98=PLANE('',#133);
#99=EDGE_LOOP('',(#134,#135,#136,#137));
#100=AXIS2_PLACEMENT_3D('',#138,#139,#140);
#101=EDGE_LOOP('',(#141,#142,#143,#144));
#102=AXIS2_PLACEMENT_3D('',#145,#146,#147);
#103=EDGE_LOOP('',(#148,#149,#150,#151));
#104=AXIS2_PLACEMENT_3D('',#152,#153,#154);
#105=EDGE_LOOP('',(#155,#156,#157,#158));
#106=AXIS2_PLACEMENT_3D('',#159,#160,#161);
#107=EDGE_LOOP('',(#162,#163,#164,#165,#166,#167,#168,#169,#170,#171,#172,#173));
#108=AXIS2_PLACEMENT_3D('',#174,#175,#176);
#109=EDGE_LOOP('',(#177,#178,#179,#180));
#110=AXIS2_PLACEMENT_3D('',#181,#182,#183);
#111=EDGE_LOOP('',(#184,#185,#186,#187));
#112=AXIS2_PLACEMENT_3D('',#188,#189,#190);
#113=EDGE_LOOP('',(#191,#192,#193,#194));
#114=AXIS2_PLACEMENT_3D('',#195,#196,#197);
#115=EDGE_LOOP('',(#198,#199,#200,#201));
#116=EDGE_LOOP('',(#202,#203));
#117=AXIS2_PLACEMENT_3D('',#204,#205,#206);
#118=EDGE_LOOP('',(#207,#208,#209,#210));
#119=AXIS2_PLACEMENT_3D('',#211,#212,#213);
#120=EDGE_LOOP('',(#214,#215,#216,#217));
#121=AXIS2_PLACEMENT_3D('',#218,#219,#220);
#122=EDGE_LOOP('',(#221,#222,#223,#224));
#123=AXIS2_PLACEMENT_3D('',#225,#226,#227);
#124=EDGE_LOOP('',(#228,#229,#230,#231,#232,#233,#234,#235));
#125=AXIS2_PLACEMENT_3D('',#236,#237,#238);
#126=EDGE_LOOP('',(#239,#240,#241,#242,#243,#244,#245,#246));
#127=AXIS2_PLACEMENT_3D('',#247,#248,#249);
#128=EDGE_LOOP('',(#250,#251,#252,#253));
#129=AXIS2_PLACEMENT_3D('',#254,#255,#256);
#130=EDGE_LOOP('',(#257,#258,#259,#260));
#131=AXIS2_PLACEMENT_3D('',#261,#262,#263);
#132=EDGE_LOOP('',(#264,#265));
#133=AXIS2_PLACEMENT_3D('',#266,#267,#268);
#134=ORIENTED_EDGE('',*,*,#269,.T.);
#135=ORIENTED_EDGE('',*,*,#270,.T.);
#136=ORIENTED_EDGE('',*,*,#271,.T.);
#137=ORIENTED_EDGE('',*,*,#272,.F.);
#138=CARTESIAN_POINT('',(0.0,0.0,-17.4593149556333));
#139=DIRECTION('',(0.0,0.0,-1.0));
#140=DIRECTION('',(1.0,0.0,0.0));
#141=ORIENTED_EDGE('',*,*,#273,.F.);
#142=ORIENTED_EDGE('',*,*,#274,.T.);
#143=ORIENTED_EDGE('',*,*,#275,.T.);
#144=ORIENTED_EDGE('',*,*,#276,.F.);
#145=CARTESIAN_POINT('',(-9.5,10.0,12.0));
#146=DIRECTION('',(1.0,-0.0,0.0));
#147=DIRECTION('',(0.0,1.0,-0.0));
#148=ORIENTED_EDGE('',*,*,#277,.F.);
#149=ORIENTED_EDGE('',*,*,#276,.T.);
#150=ORIENTED_EDGE('',*,*,#278,.T.);
#151=ORIENTED_EDGE('',*,*,#279,.F.);
#152=CARTESIAN_POINT('',(-9.5,-10.0,12.0));
#153=DIRECTION('',(0.0,1.0,0.0));
#154=DIRECTION('',(1.0,0.0,-0.0));
#155=ORIENTED_EDGE('',*,*,#280,.F.);
#156=ORIENTED_EDGE('',*,*,#279,.T.);
#157=ORIENTED_EDGE('',*,*,#281,.T.);
#158=ORIENTED_EDGE('',*,*,#282,.F.);
#159=CARTESIAN_POINT('',(9.5,10.0,12.0));
#160=DIRECTION('',(-1.0,0.0,0.0));
#161=DIRECTION('',(0.0,0.0,1.0));
#162=ORIENTED_EDGE('',*,*,#283,.F.);
#163=ORIENTED_EDGE('',*,*,#282,.T.);
#164=ORIENTED_EDGE('',*,*,#284,.T.);
#165=ORIENTED_EDGE('',*,*,#274,.F.);
#166=ORIENTED_EDGE('',*,*,#285,.F.);
#167=ORIENTED_EDGE('',*,*,#286,.T.);
#168=ORIENTED_EDGE('',*,*,#287,.T.);
#169=ORIENTED_EDGE('',*,*,#288,.F.);
#170=ORIENTED_EDGE('',*,*,#289,.F.);
#171=ORIENTED_EDGE('',*,*,#290,.T.);
#172=ORIENTED_EDGE('',*,*,#291,.T.);
#173=ORIENTED_EDGE('',*,*,#292,.F.);
#174=CARTESIAN_POINT('',(-9.5,10.0,12.0));
#175=DIRECTION('',(0.0,-1.0,0.0));
#176=DIRECTION('',(0.0,0.0,-1.0));
#177=ORIENTED_EDGE('',*,*,#288,.T.);
#178=ORIENTED_EDGE('',*,*,#293,.T.);
#179=ORIENTED_EDGE('',*,*,#294,.F.);
#180=ORIENTED_EDGE('',*,*,#295,.F.);
#181=CARTESIAN_POINT('',(-9.5,10.0,12.0));
#182=DIRECTION('',(1.0,-0.0,0.0));
#183=DIRECTION('',(0.0,1.0,-0.0));
#184=ORIENTED_EDGE('',*,*,#294,.T.);
#185=ORIENTED_EDGE('',*,*,#296,.T.);
#186=ORIENTED_EDGE('',*,*,#297,.F.);
#187=ORIENTED_EDGE('',*,*,#298,.F.);
#188=CARTESIAN_POINT('',(-9.5,-10.0,12.0));
#189=DIRECTION('',(0.0,1.0,0.0));
#190=DIRECTION('',(1.0,0.0,-0.0));
#191=ORIENTED_EDGE('',*,*,#297,.T.);
#192=ORIENTED_EDGE('',*,*,#299,.T.);
#193=ORIENTED_EDGE('',*,*,#290,.F.);
#194=ORIENTED_EDGE('',*,*,#300,.F.);
#195=CARTESIAN_POINT('',(9.5,10.0,12.0));
#196=DIRECTION('',(-1.0,0.0,0.0));
#197=DIRECTION('',(0.0,0.0,1.0));
#198=ORIENTED_EDGE('',*,*,#295,.T.);
#199=ORIENTED_EDGE('',*,*,#298,.T.);
#200=ORIENTED_EDGE('',*,*,#300,.T.);
#201=ORIENTED_EDGE('',*,*,#289,.T.);
#202=ORIENTED_EDGE('',*,*,#301,.F.);
#203=ORIENTED_EDGE('',*,*,#271,.F.);
#204=CARTESIAN_POINT('',(-9.5,-10.0,12.0));
#205=DIRECTION('',(-0.0,0.0,1.0));
#206=DIRECTION('',(1.0,0.0,0.0));
#207=ORIENTED_EDGE('',*,*,#275,.F.);
#208=ORIENTED_EDGE('',*,*,#284,.F.);
#209=ORIENTED_EDGE('',*,*,#281,.F.);
#210=ORIENTED_EDGE('',*,*,#278,.F.);
#211=CARTESIAN_POINT('',(-9.5,-10.0,0.0));
#212=DIRECTION('',(-0.0,0.0,1.0));
#213=DIRECTION('',(1.0,0.0,0.0));
#214=ORIENTED_EDGE('',*,*,#302,.T.);
#215=ORIENTED_EDGE('',*,*,#286,.F.);
#216=ORIENTED_EDGE('',*,*,#303,.F.);
#217=ORIENTED_EDGE('',*,*,#304,.T.);
#218=CARTESIAN_POINT('',(-8.5,-9.35609923646429,2.0));
#219=DIRECTION('',(1.0,-0.0,0.0));
#220=DIRECTION('',(0.0,1.0,0.0));
#221=ORIENTED_EDGE('',*,*,#305,.T.);
#222=ORIENTED_EDGE('',*,*,#306,.F.);
#223=ORIENTED_EDGE('',*,*,#307,.F.);
#224=ORIENTED_EDGE('',*,*,#292,.T.);
#225=CARTESIAN_POINT('',(8.5,10.0,2.0));
#226=DIRECTION('',(-1.0,0.0,0.0));
#227=DIRECTION('',(0.0,0.0,1.0));
#228=ORIENTED_EDGE('',*,*,#307,.T.);
#229=ORIENTED_EDGE('',*,*,#308,.T.);
#230=ORIENTED_EDGE('',*,*,#303,.T.);
#231=ORIENTED_EDGE('',*,*,#285,.T.);
#232=ORIENTED_EDGE('',*,*,#273,.T.);
#233=ORIENTED_EDGE('',*,*,#277,.T.);
#234=ORIENTED_EDGE('',*,*,#280,.T.);
#235=ORIENTED_EDGE('',*,*,#283,.T.);
#236=CARTESIAN_POINT('',(-9.5,10.0,2.0));
#237=DIRECTION('',(0.0,0.0,1.0));
#238=DIRECTION('',(1.0,-0.0,0.0));
#239=ORIENTED_EDGE('',*,*,#309,.T.);
#240=ORIENTED_EDGE('',*,*,#305,.F.);
#241=ORIENTED_EDGE('',*,*,#291,.F.);
#242=ORIENTED_EDGE('',*,*,#299,.F.);
#243=ORIENTED_EDGE('',*,*,#296,.F.);
#244=ORIENTED_EDGE('',*,*,#293,.F.);
#245=ORIENTED_EDGE('',*,*,#287,.F.);
#246=ORIENTED_EDGE('',*,*,#302,.F.);
#247=CARTESIAN_POINT('',(-9.5,10.0,10.0));
#248=DIRECTION('',(0.0,0.0,1.0));
#249=DIRECTION('',(1.0,-0.0,0.0));
#250=ORIENTED_EDGE('',*,*,#308,.F.);
#251=ORIENTED_EDGE('',*,*,#306,.T.);
#252=ORIENTED_EDGE('',*,*,#309,.F.);
#253=ORIENTED_EDGE('',*,*,#304,.F.);
#254=CARTESIAN_POINT('',(-8.5,-9.35609923646429,-15.0037291988026));
#255=DIRECTION('',(0.0,-1.0,0.0));
#256=DIRECTION('',(0.0,0.0,-1.0));
#257=ORIENTED_EDGE('',*,*,#270,.F.);
#258=ORIENTED_EDGE('',*,*,#310,.T.);
#259=ORIENTED_EDGE('',*,*,#272,.T.);
#260=ORIENTED_EDGE('',*,*,#301,.T.);
#261=CARTESIAN_POINT('',(0.0,0.0,-17.4593149556333));
#262=DIRECTION('',(0.0,0.0,-1.0));
#263=DIRECTION('',(1.0,0.0,0.0));
#264=ORIENTED_EDGE('',*,*,#269,.F.);
#265=ORIENTED_EDGE('',*,*,#310,.F.);
#266=CARTESIAN_POINT('',(-9.5,-10.0,2.22));
#267=DIRECTION('',(-0.0,0.0,1.0));
#268=DIRECTION('',(1.0,0.0,0.0));
#269=EDGE_CURVE('NONE',#311,#312,#313,.T.);
#270=EDGE_CURVE('NONE',#312,#314,#315,.T.);
#271=EDGE_CURVE('NONE',#314,#316,#317,.T.);
#272=EDGE_CURVE('NONE',#311,#316,#318,.T.);
#273=EDGE_CURVE('NONE',#319,#320,#321,.T.);
#274=EDGE_CURVE('NONE',#319,#322,#323,.T.);
#275=EDGE_CURVE('NONE',#322,#324,#325,.T.);
#276=EDGE_CURVE('NONE',#320,#324,#326,.T.);
#277=EDGE_CURVE('NONE',#320,#327,#328,.T.);
#278=EDGE_CURVE('NONE',#324,#329,#330,.T.);
#279=EDGE_CURVE('NONE',#327,#329,#331,.T.);
#280=EDGE_CURVE('NONE',#327,#332,#333,.T.);
#281=EDGE_CURVE('NONE',#329,#334,#335,.T.);
#282=EDGE_CURVE('NONE',#332,#334,#336,.T.);
#283=EDGE_CURVE('NONE',#332,#337,#338,.T.);
#284=EDGE_CURVE('NONE',#334,#322,#339,.T.);
#285=EDGE_CURVE('NONE',#340,#319,#341,.T.);
#286=EDGE_CURVE('NONE',#340,#342,#343,.T.);
#287=EDGE_CURVE('NONE',#342,#344,#345,.T.);
#288=EDGE_CURVE('NONE',#346,#344,#347,.T.);
#289=EDGE_CURVE('NONE',#348,#346,#349,.T.);
#290=EDGE_CURVE('NONE',#348,#350,#351,.T.);
#291=EDGE_CURVE('NONE',#350,#352,#353,.T.);
#292=EDGE_CURVE('NONE',#337,#352,#354,.T.);
#293=EDGE_CURVE('NONE',#344,#355,#356,.T.);
#294=EDGE_CURVE('NONE',#357,#355,#358,.T.);
#295=EDGE_CURVE('NONE',#346,#357,#359,.T.);
#296=EDGE_CURVE('NONE',#355,#360,#361,.T.);
#297=EDGE_CURVE('NONE',#362,#360,#363,.T.);
#298=EDGE_CURVE('NONE',#357,#362,#364,.T.);
#299=EDGE_CURVE('NONE',#360,#350,#365,.T.);
#300=EDGE_CURVE('NONE',#362,#348,#366,.T.);
#301=EDGE_CURVE('NONE',#316,#314,#367,.T.);
#302=EDGE_CURVE('NONE',#368,#342,#369,.T.);
#303=EDGE_CURVE('NONE',#370,#340,#371,.T.);
#304=EDGE_CURVE('NONE',#370,#368,#372,.T.);
#305=EDGE_CURVE('NONE',#352,#373,#374,.T.);
#306=EDGE_CURVE('NONE',#375,#373,#376,.T.);
#307=EDGE_CURVE('NONE',#337,#375,#377,.T.);
#308=EDGE_CURVE('NONE',#375,#370,#378,.T.);
#309=EDGE_CURVE('NONE',#368,#373,#379,.T.);
#310=EDGE_CURVE('NONE',#312,#311,#380,.T.);
#311=VERTEX_POINT('NONE',#381);
#312=VERTEX_POINT('NONE',#382);
#313=CIRCLE('',#383,6.1728);
#314=VERTEX_POINT('NONE',#384);
#315=LINE('',#385,#386);
#316=VERTEX_POINT('NONE',#387);
#317=CIRCLE('',#388,6.1728);
#318=LINE('',#389,#390);
#319=VERTEX_POINT('NONE',#391);
#320=VERTEX_POINT('NONE',#392);
#321=LINE('',#393,#394);
#322=VERTEX_POINT('NONE',#395);
#323=LINE('',#396,#397);
#324=VERTEX_POINT('NONE',#398);
#325=LINE('',#399,#400);
#326=LINE('',#401,#402);
#327=VERTEX_POINT('NONE',#403);
#328=LINE('',#404,#405);
#329=VERTEX_POINT('NONE',#406);
#330=LINE('',#407,#408);
#331=LINE('',#409,#410);
#332=VERTEX_POINT('NONE',#411);
#333=LINE('',#412,#413);
#334=VERTEX_POINT('NONE',#414);
#335=LINE('',#415,#416);
#336=LINE('',#417,#418);
#337=VERTEX_POINT('NONE',#419);
#338=LINE('',#420,#421);
#339=LINE('',#422,#423);
#340=VERTEX_POINT('NONE',#424);
#341=LINE('',#425,#426);
#342=VERTEX_POINT('NONE',#427);
#343=LINE('',#428,#429);
#344=VERTEX_POINT('NONE',#430);
#345=LINE('',#431,#432);
#346=VERTEX_POINT('NONE',#433);
#347=LINE('',#434,#435);
#348=VERTEX_POINT('NONE',#436);
#349=LINE('',#437,#438);
#350=VERTEX_POINT('NONE',#439);
#351=LINE('',#440,#441);
#352=VERTEX_POINT('NONE',#442);
#353=LINE('',#443,#444);
#354=LINE('',#445,#446);
#355=VERTEX_POINT('NONE',#447);
#356=LINE('',#448,#449);
#357=VERTEX_POINT('NONE',#450);
#358=LINE('',#451,#452);
#359=LINE('',#453,#454);
#360=VERTEX_POINT('NONE',#455);
#361=LINE('',#456,#457);
#362=VERTEX_POINT('NONE',#458);
#363=LINE('',#459,#460);
#364=LINE('',#461,#462);
#365=LINE('',#463,#464);
#366=LINE('',#465,#466);
#367=CIRCLE('',#467,6.1728);
#368=VERTEX_POINT('NONE',#468);
#369=LINE('',#469,#470);
#370=VERTEX_POINT('NONE',#471);
#371=LINE('',#472,#473);
#372=LINE('',#474,#475);
#373=VERTEX_POINT('NONE',#476);
#374=LINE('',#477,#478);
#375=VERTEX_POINT('NONE',#479);
#376=LINE('',#480,#481);
#377=LINE('',#482,#483);
#378=LINE('',#484,#485);
#379=LINE('',#486,#487);
#380=CIRCLE('',#488,6.1728);
#381=CARTESIAN_POINT('',(6.1728,0.0,2.22));
#382=CARTESIAN_POINT('',(-6.1728,7.55949976177678E-16,2.22));
#383=AXIS2_PLACEMENT_3D('',#489,#490,#491);
#384=CARTESIAN_POINT('',(-6.1728,7.55949976177678E-16,12.0));
#385=CARTESIAN_POINT('',(-6.1728,7.55949976177678E-16,-17.4593149556333));
#386=VECTOR('',#492,1000.0);
#387=CARTESIAN_POINT('',(6.1728,0.0,12.0));
#388=AXIS2_PLACEMENT_3D('',#493,#494,#495);
#389=CARTESIAN_POINT('',(6.1728,0.0,-17.4593149556333));
#390=VECTOR('',#496,1000.0);
#391=CARTESIAN_POINT('',(-9.5,10.0,2.0));
#392=CARTESIAN_POINT('',(-9.5,-10.0,2.0));
#393=CARTESIAN_POINT('',(-9.5,10.0,2.0));
#394=VECTOR('',#497,1000.0);
#395=CARTESIAN_POINT('',(-9.5,10.0,0.0));
#396=CARTESIAN_POINT('',(-9.5,10.0,12.0));
#397=VECTOR('',#498,1000.0);
#398=CARTESIAN_POINT('',(-9.5,-10.0,0.0));
#399=CARTESIAN_POINT('',(-9.5,10.0,0.0));
#400=VECTOR('',#499,1000.0);
#401=CARTESIAN_POINT('',(-9.5,-10.0,12.0));
#402=VECTOR('',#500,1000.0);
#403=CARTESIAN_POINT('',(9.5,-10.0,2.0));
#404=CARTESIAN_POINT('',(-9.5,-10.0,2.0));
#405=VECTOR('',#501,1000.0);
#406=CARTESIAN_POINT('',(9.5,-10.0,0.0));
#407=CARTESIAN_POINT('',(-9.5,-10.0,0.0));
#408=VECTOR('',#502,1000.0);
#409=CARTESIAN_POINT('',(9.5,-10.0,12.0));
#410=VECTOR('',#503,1000.0);
#411=CARTESIAN_POINT('',(9.5,10.0,2.0));
#412=CARTESIAN_POINT('',(9.5,-10.0,2.0));
#413=VECTOR('',#504,1000.0);
#414=CARTESIAN_POINT('',(9.5,10.0,0.0));
#415=CARTESIAN_POINT('',(9.5,10.0,0.0));
#416=VECTOR('',#505,1000.0);
#417=CARTESIAN_POINT('',(9.5,10.0,12.0));
#418=VECTOR('',#506,1000.0);
#419=CARTESIAN_POINT('',(8.5,10.0,2.0));
#420=CARTESIAN_POINT('',(9.5,10.0,2.0));
#421=VECTOR('',#507,1000.0);
#422=CARTESIAN_POINT('',(-9.5,10.0,0.0));
#423=VECTOR('',#508,1000.0);
#424=CARTESIAN_POINT('',(-8.5,10.0,2.0));
#425=CARTESIAN_POINT('',(-8.5,10.0,2.0));
#426=VECTOR('',#509,1000.0);
#427=CARTESIAN_POINT('',(-8.5,10.0,10.0));
#428=CARTESIAN_POINT('',(-8.5,10.0,2.0));
#429=VECTOR('',#510,1000.0);
#430=CARTESIAN_POINT('',(-9.5,10.0,10.0));
#431=CARTESIAN_POINT('',(-8.5,10.0,10.0));
#432=VECTOR('',#511,1000.0);
#433=CARTESIAN_POINT('',(-9.5,10.0,12.0));
#434=CARTESIAN_POINT('',(-9.5,10.0,12.0));
#435=VECTOR('',#512,1000.0);
#436=CARTESIAN_POINT('',(9.5,10.0,12.0));
#437=CARTESIAN_POINT('',(-9.5,10.0,12.0));
#438=VECTOR('',#513,1000.0);
#439=CARTESIAN_POINT('',(9.5,10.0,10.0));
#440=CARTESIAN_POINT('',(9.5,10.0,12.0));
#441=VECTOR('',#514,1000.0);
#442=CARTESIAN_POINT('',(8.5,10.0,10.0));
#443=CARTESIAN_POINT('',(9.5,10.0,10.0));
#444=VECTOR('',#515,1000.0);
#445=CARTESIAN_POINT('',(8.5,10.0,2.0));
#446=VECTOR('',#516,1000.0);
#447=CARTESIAN_POINT('',(-9.5,-10.0,10.0));
#448=CARTESIAN_POINT('',(-9.5,10.0,10.0));
#449=VECTOR('',#517,1000.0);
#450=CARTESIAN_POINT('',(-9.5,-10.0,12.0));
#451=CARTESIAN_POINT('',(-9.5,-10.0,12.0));
#452=VECTOR('',#518,1000.0);
#453=CARTESIAN_POINT('',(-9.5,10.0,12.0));
#454=VECTOR('',#519,1000.0);
#455=CARTESIAN_POINT('',(9.5,-10.0,10.0));
#456=CARTESIAN_POINT('',(-9.5,-10.0,10.0));
#457=VECTOR('',#520,1000.0);
#458=CARTESIAN_POINT('',(9.5,-10.0,12.0));
#459=CARTESIAN_POINT('',(9.5,-10.0,12.0));
#460=VECTOR('',#521,1000.0);
#461=CARTESIAN_POINT('',(-9.5,-10.0,12.0));
#462=VECTOR('',#522,1000.0);
#463=CARTESIAN_POINT('',(9.5,-10.0,10.0));
#464=VECTOR('',#523,1000.0);
#465=CARTESIAN_POINT('',(9.5,10.0,12.0));
#466=VECTOR('',#524,1000.0);
#467=AXIS2_PLACEMENT_3D('',#525,#526,#527);
#468=CARTESIAN_POINT('',(-8.5,-9.35609923646429,10.0));
#469=CARTESIAN_POINT('',(-8.5,-9.35609923646429,10.0));
#470=VECTOR('',#528,1000.0);
#471=CARTESIAN_POINT('',(-8.5,-9.35609923646429,2.0));
#472=CARTESIAN_POINT('',(-8.5,-9.35609923646429,2.0));
#473=VECTOR('',#529,1000.0);
#474=CARTESIAN_POINT('',(-8.5,-9.35609923646429,2.0));
#475=VECTOR('',#530,1000.0);
#476=CARTESIAN_POINT('',(8.5,-9.35609923646429,10.0));
#477=CARTESIAN_POINT('',(8.5,10.0,10.0));
#478=VECTOR('',#531,1000.0);
#479=CARTESIAN_POINT('',(8.5,-9.35609923646429,1.99999999999999));
#480=CARTESIAN_POINT('',(8.5,-9.35609923646429,-15.0037291988026));
#481=VECTOR('',#532,1000.0);
#482=CARTESIAN_POINT('',(8.5,10.0,2.0));
#483=VECTOR('',#533,1000.0);
#484=CARTESIAN_POINT('',(-8.5,-9.35609923646429,2.0));
#485=VECTOR('',#534,1000.0);
#486=CARTESIAN_POINT('',(-8.5,-9.35609923646429,10.0));
#487=VECTOR('',#535,1000.0);
#488=AXIS2_PLACEMENT_3D('',#536,#537,#538);
#489=CARTESIAN_POINT('',(0.0,0.0,2.22));
#490=DIRECTION('',(0.0,0.0,-1.0));
#491=DIRECTION('',(1.0,0.0,0.0));
#492=DIRECTION('',(-0.0,-0.0,1.0));
#493=CARTESIAN_POINT('',(0.0,0.0,12.0));
#494=DIRECTION('',(0.0,0.0,1.0));
#495=DIRECTION('',(1.0,0.0,0.0));
#496=DIRECTION('',(-0.0,-0.0,1.0));
#497=DIRECTION('',(0.0,-1.0,0.0));
#498=DIRECTION('',(-0.0,-0.0,-1.0));
#499=DIRECTION('',(0.0,-1.0,0.0));
#500=DIRECTION('',(-0.0,-0.0,-1.0));
#501=DIRECTION('',(1.0,0.0,0.0));
#502=DIRECTION('',(1.0,0.0,0.0));
#503=DIRECTION('',(-0.0,-0.0,-1.0));
#504=DIRECTION('',(0.0,1.0,0.0));
#505=DIRECTION('',(-0.0,1.0,-0.0));
#506=DIRECTION('',(-0.0,-0.0,-1.0));
#507=DIRECTION('',(-1.0,0.0,0.0));
#508=DIRECTION('',(-1.0,-0.0,-0.0));
#509=DIRECTION('',(-1.0,0.0,0.0));
#510=DIRECTION('',(-0.0,-0.0,1.0));
#511=DIRECTION('',(-1.0,0.0,0.0));
#512=DIRECTION('',(-0.0,-0.0,-1.0));
#513=DIRECTION('',(-1.0,-0.0,-0.0));
#514=DIRECTION('',(-0.0,-0.0,-1.0));
#515=DIRECTION('',(-1.0,0.0,0.0));
#516=DIRECTION('',(-0.0,-0.0,1.0));
#517=DIRECTION('',(0.0,-1.0,0.0));
#518=DIRECTION('',(-0.0,-0.0,-1.0));
#519=DIRECTION('',(0.0,-1.0,0.0));
#520=DIRECTION('',(1.0,0.0,0.0));
#521=DIRECTION('',(-0.0,-0.0,-1.0));
#522=DIRECTION('',(1.0,0.0,0.0));
#523=DIRECTION('',(0.0,1.0,0.0));
#524=DIRECTION('',(-0.0,1.0,-0.0));
#525=CARTESIAN_POINT('',(0.0,0.0,12.0));
#526=DIRECTION('',(0.0,0.0,1.0));
#527=DIRECTION('',(1.0,0.0,0.0));
#528=DIRECTION('',(0.0,1.0,0.0));
#529=DIRECTION('',(0.0,1.0,0.0));
#530=DIRECTION('',(-0.0,-0.0,1.0));
#531=DIRECTION('',(0.0,-1.0,0.0));
#532=DIRECTION('',(0.0,0.0,1.0));
#533=DIRECTION('',(0.0,-1.0,0.0));
#534=DIRECTION('',(-1.0,0.0,0.0));
#535=DIRECTION('',(1.0,0.0,0.0));
#536=CARTESIAN_POINT('',(0.0,0.0,2.22));
#537=DIRECTION('',(0.0,0.0,-1.0));
#538=DIRECTION('',(1.0,0.0,0.0));
ENDSEC;
END-ISO-10303-21;
