ISO-10303-21;
HEADER;
FILE_DESCRIPTION(('STEP AP242'),'1');
FILE_NAME('42511.stp','2020-06-03T13:20:48',('TraceParts'),('TraceParts S.A.'),'Spatial InterOp 3D',' ',' ');
FILE_SCHEMA(('AP242_MANAGED_MODEL_BASED_3D_ENGINEERING_MIM_LF  {1 0 10303 442 1 1 4}'));
ENDSEC;
DATA;
#1=MECHANICAL_DESIGN_GEOMETRIC_PRESENTATION_REPRESENTATION(' ',(#10,#11,#12,#13,#14,#15,#16,#17,#18,#19,#20,#21,#22,#23,#24,#25,#26),#6);
#2=PRODUCT_DEFINITION_CONTEXT('',#27,'design');
#3=APPLICATION_PROTOCOL_DEFINITION('INTERNATIONAL STANDARD','ap242_managed_model_based_3d_engineering',2014,#27);
#4=PRODUCT_CATEGORY_RELATIONSHIP('NONE','NONE',#28,#29);
#5=SHAPE_DEFINITION_REPRESENTATION(#30,#31);
#6= (GEOMETRIC_REPRESENTATION_CONTEXT(3)GLOBAL_UNCERTAINTY_ASSIGNED_CONTEXT((#34))GLOBAL_UNIT_ASSIGNED_CONTEXT((#36,#37,#38))REPRESENTATION_CONTEXT('NONE','WORKSPACE'));
#10=STYLED_ITEM('',(#40),#41);
#11=STYLED_ITEM('',(#42),#43);
#12=STYLED_ITEM('',(#44),#45);
#13=STYLED_ITEM('',(#46),#47);
#14=STYLED_ITEM('',(#48),#49);
#15=STYLED_ITEM('',(#50),#51);
#16=STYLED_ITEM('',(#52),#53);
#17=STYLED_ITEM('',(#54),#55);
#18=STYLED_ITEM('',(#56),#57);
#19=STYLED_ITEM('',(#58),#59);
#20=STYLED_ITEM('',(#60),#61);
#21=STYLED_ITEM('',(#62),#63);
#22=STYLED_ITEM('',(#64),#65);
#23=STYLED_ITEM('',(#66),#67);
#24=STYLED_ITEM('',(#68),#69);
#25=STYLED_ITEM('',(#70),#71);
#26=STYLED_ITEM('',(#72),#73);
#27=APPLICATION_CONTEXT('managed model based 3d engineering');
#28=PRODUCT_CATEGORY('part','NONE');
#29=PRODUCT_RELATED_PRODUCT_CATEGORY('detail',' ',(#74));
#30=PRODUCT_DEFINITION_SHAPE('NONE','NONE',#75);
#31=ADVANCED_BREP_SHAPE_REPRESENTATION('42511',(#73,#76),#6);
#34=UNCERTAINTY_MEASURE_WITH_UNIT(LENGTH_MEASURE(1.0E-06),#36,'','');
#36= (CONVERSION_BASED_UNIT('MILLIMETRE',#79)LENGTH_UNIT()NAMED_UNIT(#82));
#37= (NAMED_UNIT(#84)PLANE_ANGLE_UNIT()SI_UNIT($,.RADIAN.));
#38= (NAMED_UNIT(#84)SOLID_ANGLE_UNIT()SI_UNIT($,.STERADIAN.));
#40=PRESENTATION_STYLE_ASSIGNMENT((#90));
#41=ADVANCED_FACE('NONE',(#91),#92,.F.);
#42=PRESENTATION_STYLE_ASSIGNMENT((#93));
#43=ADVANCED_FACE('NONE',(#94),#95,.F.);
#44=PRESENTATION_STYLE_ASSIGNMENT((#96));
#45=ADVANCED_FACE('NONE',(#97),#98,.F.);
#46=PRESENTATION_STYLE_ASSIGNMENT((#99));
#47=ADVANCED_FACE('NONE',(#100),#101,.F.);
#48=PRESENTATION_STYLE_ASSIGNMENT((#102));
#49=ADVANCED_FACE('NONE',(#103),#104,.F.);
#50=PRESENTATION_STYLE_ASSIGNMENT((#105));
#51=ADVANCED_FACE('NONE',(#106),#107,.F.);
#52=PRESENTATION_STYLE_ASSIGNMENT((#108));
#53=ADVANCED_FACE('NONE',(#109,#110),#111,.T.);
#54=PRESENTATION_STYLE_ASSIGNMENT((#112));
#55=ADVANCED_FACE('NONE',(#113),#114,.F.);
#56=PRESENTATION_STYLE_ASSIGNMENT((#115));
#57=ADVANCED_FACE('NONE',(#116),#117,.F.);
#58=PRESENTATION_STYLE_ASSIGNMENT((#118));
#59=ADVANCED_FACE('NONE',(#119),#120,.F.);
#60=PRESENTATION_STYLE_ASSIGNMENT((#121));
#61=ADVANCED_FACE('NONE',(#122),#123,.F.);
#62=PRESENTATION_STYLE_ASSIGNMENT((#124));
#63=ADVANCED_FACE('NONE',(#125),#126,.F.);
#64=PRESENTATION_STYLE_ASSIGNMENT((#127));
#65=ADVANCED_FACE('NONE',(#128),#129,.F.);
#66=PRESENTATION_STYLE_ASSIGNMENT((#130));
#67=ADVANCED_FACE('NONE',(#131,#132),#133,.F.);
#68=PRESENTATION_STYLE_ASSIGNMENT((#134));
#69=ADVANCED_FACE('NONE',(#135),#136,.T.);
#70=PRESENTATION_STYLE_ASSIGNMENT((#137));
#71=ADVANCED_FACE('NONE',(#138),#139,.F.);
#72=PRESENTATION_STYLE_ASSIGNMENT((#140));
#73=MANIFOLD_SOLID_BREP('42511',#141);
#74=PRODUCT('42511','','PART--DESC',(#142));
#75=PRODUCT_DEFINITION('','NONE',#143,#2);
#76=AXIS2_PLACEMENT_3D('',#144,#145,#146);
#79=LENGTH_MEASURE_WITH_UNIT(LENGTH_MEASURE(1.0),#147);
#82=DIMENSIONAL_EXPONENTS(1.0,0.0,0.0,0.0,0.0,0.0,0.0);
#84=DIMENSIONAL_EXPONENTS(0.0,0.0,0.0,0.0,0.0,0.0,0.0);
#90=SURFACE_STYLE_USAGE(.BOTH.,#148);
#91=FACE_OUTER_BOUND('',#149,.T.);
#92=CYLINDRICAL_SURFACE('',#150,5.5);
#93=SURFACE_STYLE_USAGE(.BOTH.,#151);
#94=FACE_OUTER_BOUND('',#152,.T.);
#95=PLANE('',#153);
#96=SURFACE_STYLE_USAGE(.BOTH.,#154);
#97=FACE_OUTER_BOUND('',#155,.T.);
#98=PLANE('',#156);
#99=SURFACE_STYLE_USAGE(.BOTH.,#157);
#100=FACE_OUTER_BOUND('',#158,.T.);
#101=PLANE('',#159);
#102=SURFACE_STYLE_USAGE(.BOTH.,#160);
#103=FACE_OUTER_BOUND('',#161,.T.);
#104=PLANE('',#162);
#105=SURFACE_STYLE_USAGE(.BOTH.,#163);
#106=FACE_OUTER_BOUND('',#164,.T.);
#107=PLANE('',#165);
#108=SURFACE_STYLE_USAGE(.BOTH.,#166);
#109=FACE_OUTER_BOUND('',#167,.T.);
#110=FACE_BOUND('',#168,.T.);
#111=PLANE('',#169);
#112=SURFACE_STYLE_USAGE(.BOTH.,#170);
#113=FACE_OUTER_BOUND('',#171,.T.);
#114=PLANE('',#172);
#115=SURFACE_STYLE_USAGE(.BOTH.,#173);
#116=FACE_OUTER_BOUND('',#174,.T.);
#117=PLANE('',#175);
#118=SURFACE_STYLE_USAGE(.BOTH.,#176);
#119=FACE_OUTER_BOUND('',#177,.T.);
#120=PLANE('',#178);
#121=SURFACE_STYLE_USAGE(.BOTH.,#179);
#122=FACE_OUTER_BOUND('',#180,.T.);
#123=PLANE('',#181);
#124=SURFACE_STYLE_USAGE(.BOTH.,#182);
#125=FACE_OUTER_BOUND('',#183,.T.);
#126=PLANE('',#184);
#127=SURFACE_STYLE_USAGE(.BOTH.,#185);
#128=FACE_OUTER_BOUND('',#186,.T.);
#129=PLANE('',#187);
#130=SURFACE_STYLE_USAGE(.BOTH.,#188);
#131=FACE_OUTER_BOUND('',#189,.T.);
#132=FACE_BOUND('',#190,.T.);
#133=PLANE('',#191);
#134=SURFACE_STYLE_USAGE(.BOTH.,#192);
#135=FACE_OUTER_BOUND('',#193,.T.);
#136=PLANE('',#194);
#137=SURFACE_STYLE_USAGE(.BOTH.,#195);
#138=FACE_OUTER_BOUND('',#196,.T.);
#139=CYLINDRICAL_SURFACE('',#197,5.5);
#140=SURFACE_STYLE_USAGE(.BOTH.,#198);
#141=CLOSED_SHELL('',(#41,#43,#45,#47,#49,#51,#53,#55,#57,#59,#61,#63,#65,#67,#69,#71));
#142=PRODUCT_CONTEXT('',#27,'mechanical');
#143=PRODUCT_DEFINITION_FORMATION_WITH_SPECIFIED_SOURCE(' ','NONE',#74,.NOT_KNOWN.);
#144=CARTESIAN_POINT('',(0.0,0.0,0.0));
#145=DIRECTION('',(0.0,0.0,1.0));
#146=DIRECTION('',(1.0,0.0,0.0));
#147= (NAMED_UNIT(#82)LENGTH_UNIT()SI_UNIT(.MILLI.,.METRE.));
#148=SURFACE_SIDE_STYLE('',(#200));
#149=EDGE_LOOP('',(#201,#202,#203,#204));
#150=AXIS2_PLACEMENT_3D('',#205,#206,#207);
#151=SURFACE_SIDE_STYLE('',(#208));
#152=EDGE_LOOP('',(#209,#210,#211,#212,#213,#214,#215,#216));
#153=AXIS2_PLACEMENT_3D('',#217,#218,#219);
#154=SURFACE_SIDE_STYLE('',(#220));
#155=EDGE_LOOP('',(#221,#222,#223,#224));
#156=AXIS2_PLACEMENT_3D('',#225,#226,#227);
#157=SURFACE_SIDE_STYLE('',(#228));
#158=EDGE_LOOP('',(#229,#230,#231,#232));
#159=AXIS2_PLACEMENT_3D('',#233,#234,#235);
#160=SURFACE_SIDE_STYLE('',(#236));
#161=EDGE_LOOP('',(#237,#238,#239,#240));
#162=AXIS2_PLACEMENT_3D('',#241,#242,#243);
#163=SURFACE_SIDE_STYLE('',(#244));
#164=EDGE_LOOP('',(#245,#246,#247,#248,#249,#250,#251,#252,#253,#254,#255,#256));
#165=AXIS2_PLACEMENT_3D('',#257,#258,#259);
#166=SURFACE_SIDE_STYLE('',(#260));
#167=EDGE_LOOP('',(#261,#262,#263,#264));
#168=EDGE_LOOP('',(#265,#266));
#169=AXIS2_PLACEMENT_3D('',#267,#268,#269);
#170=SURFACE_SIDE_STYLE('',(#270));
#171=EDGE_LOOP('',(#271,#272,#273,#274));
#172=AXIS2_PLACEMENT_3D('',#275,#276,#277);
#173=SURFACE_SIDE_STYLE('',(#278));
#174=EDGE_LOOP('',(#279,#280,#281,#282));
#175=AXIS2_PLACEMENT_3D('',#283,#284,#285);
#176=SURFACE_SIDE_STYLE('',(#286));
#177=EDGE_LOOP('',(#287,#288,#289,#290));
#178=AXIS2_PLACEMENT_3D('',#291,#292,#293);
#179=SURFACE_SIDE_STYLE('',(#294));
#180=EDGE_LOOP('',(#295,#296,#297,#298));
#181=AXIS2_PLACEMENT_3D('',#299,#300,#301);
#182=SURFACE_SIDE_STYLE('',(#302));
#183=EDGE_LOOP('',(#303,#304,#305,#306));
#184=AXIS2_PLACEMENT_3D('',#307,#308,#309);
#185=SURFACE_SIDE_STYLE('',(#310));
#186=EDGE_LOOP('',(#311,#312,#313,#314));
#187=AXIS2_PLACEMENT_3D('',#315,#316,#317);
#188=SURFACE_SIDE_STYLE('',(#318));
#189=EDGE_LOOP('',(#319,#320,#321,#322));
#190=EDGE_LOOP('',(#323,#324));
#191=AXIS2_PLACEMENT_3D('',#325,#326,#327);
#192=SURFACE_SIDE_STYLE('',(#328));
#193=EDGE_LOOP('',(#329,#330,#331,#332,#333,#334,#335,#336));
#194=AXIS2_PLACEMENT_3D('',#337,#338,#339);
#195=SURFACE_SIDE_STYLE('',(#340));
#196=EDGE_LOOP('',(#341,#342,#343,#344));
#197=AXIS2_PLACEMENT_3D('',#345,#346,#347);
#198=SURFACE_SIDE_STYLE('',(#348));
#200=SURFACE_STYLE_FILL_AREA(#349);
#201=ORIENTED_EDGE('',*,*,#350,.T.);
#202=ORIENTED_EDGE('',*,*,#351,.T.);
#203=ORIENTED_EDGE('',*,*,#352,.T.);
#204=ORIENTED_EDGE('',*,*,#353,.F.);
#205=CARTESIAN_POINT('',(0.0,-10.0,-8.0));
#206=DIRECTION('',(0.0,0.0,-1.0));
#207=DIRECTION('',(1.0,0.0,0.0));
#208=SURFACE_STYLE_FILL_AREA(#354);
#209=ORIENTED_EDGE('',*,*,#355,.F.);
#210=ORIENTED_EDGE('',*,*,#356,.T.);
#211=ORIENTED_EDGE('',*,*,#357,.T.);
#212=ORIENTED_EDGE('',*,*,#358,.T.);
#213=ORIENTED_EDGE('',*,*,#359,.T.);
#214=ORIENTED_EDGE('',*,*,#360,.T.);
#215=ORIENTED_EDGE('',*,*,#361,.F.);
#216=ORIENTED_EDGE('',*,*,#362,.F.);
#217=CARTESIAN_POINT('',(-9.5,1.73472347597681E-15,2.0));
#218=DIRECTION('',(0.0,0.0,-1.0));
#219=DIRECTION('',(0.0,-1.0,0.0));
#220=SURFACE_STYLE_FILL_AREA(#363);
#221=ORIENTED_EDGE('',*,*,#364,.T.);
#222=ORIENTED_EDGE('',*,*,#365,.F.);
#223=ORIENTED_EDGE('',*,*,#357,.F.);
#224=ORIENTED_EDGE('',*,*,#366,.T.);
#225=CARTESIAN_POINT('',(-9.5,-20.0,2.0));
#226=DIRECTION('',(1.0,0.0,0.0));
#227=DIRECTION('',(0.0,1.0,-0.0));
#228=SURFACE_STYLE_FILL_AREA(#367);
#229=ORIENTED_EDGE('',*,*,#368,.T.);
#230=ORIENTED_EDGE('',*,*,#369,.F.);
#231=ORIENTED_EDGE('',*,*,#358,.F.);
#232=ORIENTED_EDGE('',*,*,#365,.T.);
#233=CARTESIAN_POINT('',(-9.5,-20.0,2.0));
#234=DIRECTION('',(0.0,1.0,0.0));
#235=DIRECTION('',(1.0,0.0,-0.0));
#236=SURFACE_STYLE_FILL_AREA(#370);
#237=ORIENTED_EDGE('',*,*,#371,.T.);
#238=ORIENTED_EDGE('',*,*,#372,.F.);
#239=ORIENTED_EDGE('',*,*,#359,.F.);
#240=ORIENTED_EDGE('',*,*,#369,.T.);
#241=CARTESIAN_POINT('',(9.5,-20.0,2.0));
#242=DIRECTION('',(-1.0,0.0,0.0));
#243=DIRECTION('',(0.0,0.0,1.0));
#244=SURFACE_STYLE_FILL_AREA(#373);
#245=ORIENTED_EDGE('',*,*,#374,.T.);
#246=ORIENTED_EDGE('',*,*,#366,.F.);
#247=ORIENTED_EDGE('',*,*,#356,.F.);
#248=ORIENTED_EDGE('',*,*,#375,.F.);
#249=ORIENTED_EDGE('',*,*,#376,.T.);
#250=ORIENTED_EDGE('',*,*,#377,.F.);
#251=ORIENTED_EDGE('',*,*,#378,.F.);
#252=ORIENTED_EDGE('',*,*,#379,.T.);
#253=ORIENTED_EDGE('',*,*,#380,.T.);
#254=ORIENTED_EDGE('',*,*,#381,.T.);
#255=ORIENTED_EDGE('',*,*,#360,.F.);
#256=ORIENTED_EDGE('',*,*,#372,.T.);
#257=CARTESIAN_POINT('',(-9.5,1.73472347597681E-15,2.0));
#258=DIRECTION('',(0.0,-1.0,0.0));
#259=DIRECTION('',(0.0,0.0,-1.0));
#260=SURFACE_STYLE_FILL_AREA(#382);
#261=ORIENTED_EDGE('',*,*,#364,.F.);
#262=ORIENTED_EDGE('',*,*,#374,.F.);
#263=ORIENTED_EDGE('',*,*,#371,.F.);
#264=ORIENTED_EDGE('',*,*,#368,.F.);
#265=ORIENTED_EDGE('',*,*,#350,.F.);
#266=ORIENTED_EDGE('',*,*,#383,.F.);
#267=CARTESIAN_POINT('',(-9.5,1.73472347597681E-15,0.0));
#268=DIRECTION('',(0.0,0.0,-1.0));
#269=DIRECTION('',(0.0,-1.0,0.0));
#270=SURFACE_STYLE_FILL_AREA(#384);
#271=ORIENTED_EDGE('',*,*,#355,.T.);
#272=ORIENTED_EDGE('',*,*,#385,.F.);
#273=ORIENTED_EDGE('',*,*,#386,.F.);
#274=ORIENTED_EDGE('',*,*,#375,.T.);
#275=CARTESIAN_POINT('',(-8.5,1.73472347597681E-15,10.0));
#276=DIRECTION('',(1.0,7.61079395596854E-49,8.33591561801955E-33));
#277=DIRECTION('',(0.0,1.0,-9.13012355777267E-17));
#278=SURFACE_STYLE_FILL_AREA(#387);
#279=ORIENTED_EDGE('',*,*,#362,.T.);
#280=ORIENTED_EDGE('',*,*,#388,.F.);
#281=ORIENTED_EDGE('',*,*,#389,.F.);
#282=ORIENTED_EDGE('',*,*,#385,.T.);
#283=CARTESIAN_POINT('',(-8.5,-19.0,10.0));
#284=DIRECTION('',(0.0,1.0,0.0));
#285=DIRECTION('',(1.0,0.0,-0.0));
#286=SURFACE_STYLE_FILL_AREA(#390);
#287=ORIENTED_EDGE('',*,*,#361,.T.);
#288=ORIENTED_EDGE('',*,*,#381,.F.);
#289=ORIENTED_EDGE('',*,*,#391,.F.);
#290=ORIENTED_EDGE('',*,*,#388,.T.);
#291=CARTESIAN_POINT('',(8.5,1.73472347597681E-15,10.0));
#292=DIRECTION('',(-1.0,-3.65204942310907E-16,0.0));
#293=DIRECTION('',(-3.65204942310907E-16,1.0,0.0));
#294=SURFACE_STYLE_FILL_AREA(#392);
#295=ORIENTED_EDGE('',*,*,#393,.T.);
#296=ORIENTED_EDGE('',*,*,#394,.F.);
#297=ORIENTED_EDGE('',*,*,#395,.F.);
#298=ORIENTED_EDGE('',*,*,#377,.T.);
#299=CARTESIAN_POINT('',(-9.5,-20.0,12.0));
#300=DIRECTION('',(1.0,0.0,0.0));
#301=DIRECTION('',(0.0,1.0,-0.0));
#302=SURFACE_STYLE_FILL_AREA(#396);
#303=ORIENTED_EDGE('',*,*,#397,.T.);
#304=ORIENTED_EDGE('',*,*,#398,.F.);
#305=ORIENTED_EDGE('',*,*,#399,.F.);
#306=ORIENTED_EDGE('',*,*,#394,.T.);
#307=CARTESIAN_POINT('',(-9.5,-20.0,12.0));
#308=DIRECTION('',(0.0,1.0,0.0));
#309=DIRECTION('',(1.0,0.0,-0.0));
#310=SURFACE_STYLE_FILL_AREA(#400);
#311=ORIENTED_EDGE('',*,*,#401,.T.);
#312=ORIENTED_EDGE('',*,*,#379,.F.);
#313=ORIENTED_EDGE('',*,*,#402,.F.);
#314=ORIENTED_EDGE('',*,*,#398,.T.);
#315=CARTESIAN_POINT('',(9.5,-20.0,12.0));
#316=DIRECTION('',(-1.0,0.0,0.0));
#317=DIRECTION('',(0.0,0.0,1.0));
#318=SURFACE_STYLE_FILL_AREA(#403);
#319=ORIENTED_EDGE('',*,*,#395,.T.);
#320=ORIENTED_EDGE('',*,*,#399,.T.);
#321=ORIENTED_EDGE('',*,*,#402,.T.);
#322=ORIENTED_EDGE('',*,*,#378,.T.);
#323=ORIENTED_EDGE('',*,*,#404,.F.);
#324=ORIENTED_EDGE('',*,*,#352,.F.);
#325=CARTESIAN_POINT('',(-9.5,1.73472347597681E-15,12.0));
#326=DIRECTION('',(0.0,0.0,-1.0));
#327=DIRECTION('',(0.0,-1.0,0.0));
#328=SURFACE_STYLE_FILL_AREA(#405);
#329=ORIENTED_EDGE('',*,*,#376,.F.);
#330=ORIENTED_EDGE('',*,*,#386,.T.);
#331=ORIENTED_EDGE('',*,*,#389,.T.);
#332=ORIENTED_EDGE('',*,*,#391,.T.);
#333=ORIENTED_EDGE('',*,*,#380,.F.);
#334=ORIENTED_EDGE('',*,*,#401,.F.);
#335=ORIENTED_EDGE('',*,*,#397,.F.);
#336=ORIENTED_EDGE('',*,*,#393,.F.);
#337=CARTESIAN_POINT('',(-9.5,1.73472347597681E-15,10.0));
#338=DIRECTION('',(0.0,0.0,-1.0));
#339=DIRECTION('',(0.0,-1.0,0.0));
#340=SURFACE_STYLE_FILL_AREA(#406);
#341=ORIENTED_EDGE('',*,*,#351,.F.);
#342=ORIENTED_EDGE('',*,*,#383,.T.);
#343=ORIENTED_EDGE('',*,*,#353,.T.);
#344=ORIENTED_EDGE('',*,*,#404,.T.);
#345=CARTESIAN_POINT('',(0.0,-10.0,-8.0));
#346=DIRECTION('',(0.0,0.0,-1.0));
#347=DIRECTION('',(1.0,0.0,0.0));
#348=SURFACE_STYLE_FILL_AREA(#407);
#349=FILL_AREA_STYLE('',(#408));
#350=EDGE_CURVE('NONE',#409,#410,#411,.T.);
#351=EDGE_CURVE('NONE',#410,#412,#413,.T.);
#352=EDGE_CURVE('NONE',#412,#414,#415,.T.);
#353=EDGE_CURVE('NONE',#409,#414,#416,.T.);
#354=FILL_AREA_STYLE('',(#417));
#355=EDGE_CURVE('NONE',#418,#419,#420,.T.);
#356=EDGE_CURVE('NONE',#418,#421,#422,.T.);
#357=EDGE_CURVE('NONE',#421,#423,#424,.T.);
#358=EDGE_CURVE('NONE',#423,#425,#426,.T.);
#359=EDGE_CURVE('NONE',#425,#427,#428,.T.);
#360=EDGE_CURVE('NONE',#427,#429,#430,.T.);
#361=EDGE_CURVE('NONE',#431,#429,#432,.T.);
#362=EDGE_CURVE('NONE',#419,#431,#433,.T.);
#363=FILL_AREA_STYLE('',(#434));
#364=EDGE_CURVE('NONE',#435,#436,#437,.T.);
#365=EDGE_CURVE('NONE',#423,#436,#438,.T.);
#366=EDGE_CURVE('NONE',#421,#435,#439,.T.);
#367=FILL_AREA_STYLE('',(#440));
#368=EDGE_CURVE('NONE',#436,#441,#442,.T.);
#369=EDGE_CURVE('NONE',#425,#441,#443,.T.);
#370=FILL_AREA_STYLE('',(#444));
#371=EDGE_CURVE('NONE',#441,#445,#446,.T.);
#372=EDGE_CURVE('NONE',#427,#445,#447,.T.);
#373=FILL_AREA_STYLE('',(#448));
#374=EDGE_CURVE('NONE',#445,#435,#449,.T.);
#375=EDGE_CURVE('NONE',#450,#418,#451,.T.);
#376=EDGE_CURVE('NONE',#450,#452,#453,.T.);
#377=EDGE_CURVE('NONE',#454,#452,#455,.T.);
#378=EDGE_CURVE('NONE',#456,#454,#457,.T.);
#379=EDGE_CURVE('NONE',#456,#458,#459,.T.);
#380=EDGE_CURVE('NONE',#458,#460,#461,.T.);
#381=EDGE_CURVE('NONE',#460,#429,#462,.T.);
#382=FILL_AREA_STYLE('',(#463));
#383=EDGE_CURVE('NONE',#410,#409,#464,.T.);
#384=FILL_AREA_STYLE('',(#465));
#385=EDGE_CURVE('NONE',#466,#419,#467,.T.);
#386=EDGE_CURVE('NONE',#450,#466,#468,.T.);
#387=FILL_AREA_STYLE('',(#469));
#388=EDGE_CURVE('NONE',#470,#431,#471,.T.);
#389=EDGE_CURVE('NONE',#466,#470,#472,.T.);
#390=FILL_AREA_STYLE('',(#473));
#391=EDGE_CURVE('NONE',#470,#460,#474,.T.);
#392=FILL_AREA_STYLE('',(#475));
#393=EDGE_CURVE('NONE',#452,#476,#477,.T.);
#394=EDGE_CURVE('NONE',#478,#476,#479,.T.);
#395=EDGE_CURVE('NONE',#454,#478,#480,.T.);
#396=FILL_AREA_STYLE('',(#481));
#397=EDGE_CURVE('NONE',#476,#482,#483,.T.);
#398=EDGE_CURVE('NONE',#484,#482,#485,.T.);
#399=EDGE_CURVE('NONE',#478,#484,#486,.T.);
#400=FILL_AREA_STYLE('',(#487));
#401=EDGE_CURVE('NONE',#482,#458,#488,.T.);
#402=EDGE_CURVE('NONE',#484,#456,#489,.T.);
#403=FILL_AREA_STYLE('',(#490));
#404=EDGE_CURVE('NONE',#414,#412,#491,.T.);
#405=FILL_AREA_STYLE('',(#492));
#406=FILL_AREA_STYLE('',(#493));
#407=FILL_AREA_STYLE('',(#494));
#408=FILL_AREA_STYLE_COLOUR('',#495);
#409=VERTEX_POINT('NONE',#496);
#410=VERTEX_POINT('NONE',#497);
#411=CIRCLE('',#498,5.5);
#412=VERTEX_POINT('NONE',#499);
#413=LINE('',#500,#501);
#414=VERTEX_POINT('NONE',#502);
#415=CIRCLE('',#503,5.5);
#416=LINE('',#504,#505);
#417=FILL_AREA_STYLE_COLOUR('',#506);
#418=VERTEX_POINT('NONE',#507);
#419=VERTEX_POINT('NONE',#508);
#420=LINE('',#509,#510);
#421=VERTEX_POINT('NONE',#511);
#422=LINE('',#512,#513);
#423=VERTEX_POINT('NONE',#514);
#424=LINE('',#515,#516);
#425=VERTEX_POINT('NONE',#517);
#426=LINE('',#518,#519);
#427=VERTEX_POINT('NONE',#520);
#428=LINE('',#521,#522);
#429=VERTEX_POINT('NONE',#523);
#430=LINE('',#524,#525);
#431=VERTEX_POINT('NONE',#526);
#432=LINE('',#527,#528);
#433=LINE('',#529,#530);
#434=FILL_AREA_STYLE_COLOUR('',#531);
#435=VERTEX_POINT('NONE',#532);
#436=VERTEX_POINT('NONE',#533);
#437=LINE('',#534,#535);
#438=LINE('',#536,#537);
#439=LINE('',#538,#539);
#440=FILL_AREA_STYLE_COLOUR('',#540);
#441=VERTEX_POINT('NONE',#541);
#442=LINE('',#542,#543);
#443=LINE('',#544,#545);
#444=FILL_AREA_STYLE_COLOUR('',#546);
#445=VERTEX_POINT('NONE',#547);
#446=LINE('',#548,#549);
#447=LINE('',#550,#551);
#448=FILL_AREA_STYLE_COLOUR('',#552);
#449=LINE('',#553,#554);
#450=VERTEX_POINT('NONE',#555);
#451=LINE('',#556,#557);
#452=VERTEX_POINT('NONE',#558);
#453=LINE('',#559,#560);
#454=VERTEX_POINT('NONE',#561);
#455=LINE('',#562,#563);
#456=VERTEX_POINT('NONE',#564);
#457=LINE('',#565,#566);
#458=VERTEX_POINT('NONE',#567);
#459=LINE('',#568,#569);
#460=VERTEX_POINT('NONE',#570);
#461=LINE('',#571,#572);
#462=LINE('',#573,#574);
#463=FILL_AREA_STYLE_COLOUR('',#575);
#464=CIRCLE('',#576,5.5);
#465=FILL_AREA_STYLE_COLOUR('',#577);
#466=VERTEX_POINT('NONE',#578);
#467=LINE('',#579,#580);
#468=LINE('',#581,#582);
#469=FILL_AREA_STYLE_COLOUR('',#583);
#470=VERTEX_POINT('NONE',#584);
#471=LINE('',#585,#586);
#472=LINE('',#587,#588);
#473=FILL_AREA_STYLE_COLOUR('',#589);
#474=LINE('',#590,#591);
#475=FILL_AREA_STYLE_COLOUR('',#592);
#476=VERTEX_POINT('NONE',#593);
#477=LINE('',#594,#595);
#478=VERTEX_POINT('NONE',#596);
#479=LINE('',#597,#598);
#480=LINE('',#599,#600);
#481=FILL_AREA_STYLE_COLOUR('',#601);
#482=VERTEX_POINT('NONE',#602);
#483=LINE('',#603,#604);
#484=VERTEX_POINT('NONE',#605);
#485=LINE('',#606,#607);
#486=LINE('',#608,#609);
#487=FILL_AREA_STYLE_COLOUR('',#610);
#488=LINE('',#611,#612);
#489=LINE('',#613,#614);
#490=FILL_AREA_STYLE_COLOUR('',#615);
#491=CIRCLE('',#616,5.5);
#492=FILL_AREA_STYLE_COLOUR('',#617);
#493=FILL_AREA_STYLE_COLOUR('',#618);
#494=FILL_AREA_STYLE_COLOUR('',#619);
#495=COLOUR_RGB('',0.752941191196442,0.752941191196442,0.752941191196442);
#496=CARTESIAN_POINT('',(5.5,-10.0,0.0));
#497=CARTESIAN_POINT('',(-5.5,-10.0,0.0));
#498=AXIS2_PLACEMENT_3D('',#620,#621,#622);
#499=CARTESIAN_POINT('',(-5.5,-10.0,12.0));
#500=CARTESIAN_POINT('',(-5.5,-10.0,-8.0));
#501=VECTOR('',#623,1000.0);
#502=CARTESIAN_POINT('',(5.5,-10.0,12.0));
#503=AXIS2_PLACEMENT_3D('',#624,#625,#626);
#504=CARTESIAN_POINT('',(5.5,-10.0,-8.0));
#505=VECTOR('',#627,1000.0);
#506=COLOUR_RGB('',0.752941191196442,0.752941191196442,0.752941191196442);
#507=CARTESIAN_POINT('',(-8.5,1.73472347597681E-15,2.0));
#508=CARTESIAN_POINT('',(-8.5,-19.0,2.0));
#509=CARTESIAN_POINT('',(-8.5,1.73472347597681E-15,2.0));
#510=VECTOR('',#628,1000.0);
#511=CARTESIAN_POINT('',(-9.5,1.73472347597681E-15,2.0));
#512=CARTESIAN_POINT('',(-9.5,1.73472347597681E-15,2.0));
#513=VECTOR('',#629,1000.0);
#514=CARTESIAN_POINT('',(-9.5,-20.0,2.0));
#515=CARTESIAN_POINT('',(-9.5,-20.0,2.0));
#516=VECTOR('',#630,1000.0);
#517=CARTESIAN_POINT('',(9.5,-20.0,2.0));
#518=CARTESIAN_POINT('',(-9.5,-20.0,2.0));
#519=VECTOR('',#631,1000.0);
#520=CARTESIAN_POINT('',(9.5,1.73472347597681E-15,2.0));
#521=CARTESIAN_POINT('',(9.5,-20.0,2.0));
#522=VECTOR('',#632,1000.0);
#523=CARTESIAN_POINT('',(8.5,1.73472347597681E-15,2.0));
#524=CARTESIAN_POINT('',(-9.5,1.73472347597681E-15,2.0));
#525=VECTOR('',#633,1000.0);
#526=CARTESIAN_POINT('',(8.50000000000001,-19.0,2.0));
#527=CARTESIAN_POINT('',(8.5,1.73472347597681E-15,2.0));
#528=VECTOR('',#634,1000.0);
#529=CARTESIAN_POINT('',(-8.5,-19.0,2.0));
#530=VECTOR('',#635,1000.0);
#531=COLOUR_RGB('',0.752941191196442,0.752941191196442,0.752941191196442);
#532=CARTESIAN_POINT('',(-9.5,1.73472347597681E-15,0.0));
#533=CARTESIAN_POINT('',(-9.5,-20.0,0.0));
#534=CARTESIAN_POINT('',(-9.5,-20.0,0.0));
#535=VECTOR('',#636,1000.0);
#536=CARTESIAN_POINT('',(-9.5,-20.0,2.0));
#537=VECTOR('',#637,1000.0);
#538=CARTESIAN_POINT('',(-9.5,1.73472347597681E-15,2.0));
#539=VECTOR('',#638,1000.0);
#540=COLOUR_RGB('',0.752941191196442,0.752941191196442,0.752941191196442);
#541=CARTESIAN_POINT('',(9.5,-20.0,0.0));
#542=CARTESIAN_POINT('',(-9.5,-20.0,0.0));
#543=VECTOR('',#639,1000.0);
#544=CARTESIAN_POINT('',(9.5,-20.0,2.0));
#545=VECTOR('',#640,1000.0);
#546=COLOUR_RGB('',0.752941191196442,0.752941191196442,0.752941191196442);
#547=CARTESIAN_POINT('',(9.5,1.73472347597681E-15,0.0));
#548=CARTESIAN_POINT('',(9.5,-20.0,0.0));
#549=VECTOR('',#641,1000.0);
#550=CARTESIAN_POINT('',(9.5,1.73472347597681E-15,2.0));
#551=VECTOR('',#642,1000.0);
#552=COLOUR_RGB('',0.752941191196442,0.752941191196442,0.752941191196442);
#553=CARTESIAN_POINT('',(-9.5,1.73472347597681E-15,0.0));
#554=VECTOR('',#643,1000.0);
#555=CARTESIAN_POINT('',(-8.5,1.73472347597681E-15,10.0));
#556=CARTESIAN_POINT('',(-8.5,1.73472347597681E-15,10.0));
#557=VECTOR('',#644,1000.0);
#558=CARTESIAN_POINT('',(-9.5,1.73472347597681E-15,10.0));
#559=CARTESIAN_POINT('',(-9.5,1.73472347597681E-15,10.0));
#560=VECTOR('',#645,1000.0);
#561=CARTESIAN_POINT('',(-9.5,1.73472347597681E-15,12.0));
#562=CARTESIAN_POINT('',(-9.5,1.73472347597681E-15,12.0));
#563=VECTOR('',#646,1000.0);
#564=CARTESIAN_POINT('',(9.5,1.73472347597681E-15,12.0));
#565=CARTESIAN_POINT('',(-9.5,1.73472347597681E-15,12.0));
#566=VECTOR('',#647,1000.0);
#567=CARTESIAN_POINT('',(9.5,1.73472347597681E-15,10.0));
#568=CARTESIAN_POINT('',(9.5,1.73472347597681E-15,12.0));
#569=VECTOR('',#648,1000.0);
#570=CARTESIAN_POINT('',(8.5,1.73472347597681E-15,10.0));
#571=CARTESIAN_POINT('',(-9.5,1.73472347597681E-15,10.0));
#572=VECTOR('',#649,1000.0);
#573=CARTESIAN_POINT('',(8.5,1.73472347597681E-15,10.0));
#574=VECTOR('',#650,1000.0);
#575=COLOUR_RGB('',0.752941191196442,0.752941191196442,0.752941191196442);
#576=AXIS2_PLACEMENT_3D('',#651,#652,#653);
#577=COLOUR_RGB('',0.752941191196442,0.752941191196442,0.752941191196442);
#578=CARTESIAN_POINT('',(-8.5,-19.0,10.0));
#579=CARTESIAN_POINT('',(-8.5,-19.0,10.0));
#580=VECTOR('',#654,1000.0);
#581=CARTESIAN_POINT('',(-8.5,1.73472347597681E-15,10.0));
#582=VECTOR('',#655,1000.0);
#583=COLOUR_RGB('',0.752941191196442,0.752941191196442,0.752941191196442);
#584=CARTESIAN_POINT('',(8.50000000000001,-19.0,10.0));
#585=CARTESIAN_POINT('',(8.50000000000001,-19.0,10.0));
#586=VECTOR('',#656,1000.0);
#587=CARTESIAN_POINT('',(-8.5,-19.0,10.0));
#588=VECTOR('',#657,1000.0);
#589=COLOUR_RGB('',0.752941191196442,0.752941191196442,0.752941191196442);
#590=CARTESIAN_POINT('',(8.5,1.73472347597681E-15,10.0));
#591=VECTOR('',#658,1000.0);
#592=COLOUR_RGB('',0.752941191196442,0.752941191196442,0.752941191196442);
#593=CARTESIAN_POINT('',(-9.5,-20.0,10.0));
#594=CARTESIAN_POINT('',(-9.5,-20.0,10.0));
#595=VECTOR('',#659,1000.0);
#596=CARTESIAN_POINT('',(-9.5,-20.0,12.0));
#597=CARTESIAN_POINT('',(-9.5,-20.0,12.0));
#598=VECTOR('',#660,1000.0);
#599=CARTESIAN_POINT('',(-9.5,-20.0,12.0));
#600=VECTOR('',#661,1000.0);
#601=COLOUR_RGB('',0.752941191196442,0.752941191196442,0.752941191196442);
#602=CARTESIAN_POINT('',(9.5,-20.0,10.0));
#603=CARTESIAN_POINT('',(-9.5,-20.0,10.0));
#604=VECTOR('',#662,1000.0);
#605=CARTESIAN_POINT('',(9.5,-20.0,12.0));
#606=CARTESIAN_POINT('',(9.5,-20.0,12.0));
#607=VECTOR('',#663,1000.0);
#608=CARTESIAN_POINT('',(-9.5,-20.0,12.0));
#609=VECTOR('',#664,1000.0);
#610=COLOUR_RGB('',0.752941191196442,0.752941191196442,0.752941191196442);
#611=CARTESIAN_POINT('',(9.5,-20.0,10.0));
#612=VECTOR('',#665,1000.0);
#613=CARTESIAN_POINT('',(9.5,-20.0,12.0));
#614=VECTOR('',#666,1000.0);
#615=COLOUR_RGB('',0.752941191196442,0.752941191196442,0.752941191196442);
#616=AXIS2_PLACEMENT_3D('',#667,#668,#669);
#617=COLOUR_RGB('',0.752941191196442,0.752941191196442,0.752941191196442);
#618=COLOUR_RGB('',0.752941191196442,0.752941191196442,0.752941191196442);
#619=COLOUR_RGB('',0.752941191196442,0.752941191196442,0.752941191196442);
#620=CARTESIAN_POINT('',(0.0,-10.0,0.0));
#621=DIRECTION('',(0.0,0.0,-1.0));
#622=DIRECTION('',(-1.0,0.0,0.0));
#623=DIRECTION('',(-0.0,-0.0,1.0));
#624=CARTESIAN_POINT('',(0.0,-10.0,12.0));
#625=DIRECTION('',(0.0,0.0,1.0));
#626=DIRECTION('',(1.0,0.0,0.0));
#627=DIRECTION('',(-0.0,-0.0,1.0));
#628=DIRECTION('',(9.13012355777267E-17,-1.0,0.0));
#629=DIRECTION('',(-1.0,-0.0,-0.0));
#630=DIRECTION('',(-0.0,-1.0,-0.0));
#631=DIRECTION('',(1.0,0.0,0.0));
#632=DIRECTION('',(0.0,1.0,0.0));
#633=DIRECTION('',(-1.0,-0.0,-0.0));
#634=DIRECTION('',(-3.65204942310907E-16,1.0,-0.0));
#635=DIRECTION('',(1.0,0.0,0.0));
#636=DIRECTION('',(-0.0,-1.0,-0.0));
#637=DIRECTION('',(-0.0,-0.0,-1.0));
#638=DIRECTION('',(-0.0,-0.0,-1.0));
#639=DIRECTION('',(1.0,0.0,0.0));
#640=DIRECTION('',(-0.0,-0.0,-1.0));
#641=DIRECTION('',(0.0,1.0,0.0));
#642=DIRECTION('',(-0.0,-0.0,-1.0));
#643=DIRECTION('',(-1.0,-0.0,-0.0));
#644=DIRECTION('',(-0.0,-0.0,-1.0));
#645=DIRECTION('',(-1.0,-0.0,-0.0));
#646=DIRECTION('',(-0.0,-0.0,-1.0));
#647=DIRECTION('',(-1.0,-0.0,-0.0));
#648=DIRECTION('',(-0.0,-0.0,-1.0));
#649=DIRECTION('',(-1.0,-0.0,-0.0));
#650=DIRECTION('',(-0.0,-0.0,-1.0));
#651=CARTESIAN_POINT('',(0.0,-10.0,0.0));
#652=DIRECTION('',(0.0,0.0,-1.0));
#653=DIRECTION('',(-1.0,0.0,0.0));
#654=DIRECTION('',(-0.0,-0.0,-1.0));
#655=DIRECTION('',(9.13012355777267E-17,-1.0,0.0));
#656=DIRECTION('',(-0.0,-0.0,-1.0));
#657=DIRECTION('',(1.0,0.0,0.0));
#658=DIRECTION('',(-3.65204942310907E-16,1.0,-0.0));
#659=DIRECTION('',(-0.0,-1.0,-0.0));
#660=DIRECTION('',(-0.0,-0.0,-1.0));
#661=DIRECTION('',(-0.0,-1.0,-0.0));
#662=DIRECTION('',(1.0,0.0,0.0));
#663=DIRECTION('',(-0.0,-0.0,-1.0));
#664=DIRECTION('',(1.0,0.0,0.0));
#665=DIRECTION('',(0.0,1.0,0.0));
#666=DIRECTION('',(0.0,1.0,0.0));
#667=CARTESIAN_POINT('',(0.0,-10.0,12.0));
#668=DIRECTION('',(0.0,0.0,1.0));
#669=DIRECTION('',(1.0,0.0,0.0));
#670=PRESENTATION_LAYER_ASSIGNMENT('-1','NONE',(#73));
ENDSEC;
END-ISO-10303-21;
