ISO-10303-21;
HEADER;
FILE_DESCRIPTION(('STEP AP242'),'1');
FILE_NAME('42572.stp','2020-06-03T13:27:08',('TraceParts'),('TraceParts S.A.'),'Spatial InterOp 3D',' ',' ');
FILE_SCHEMA(('AP242_MANAGED_MODEL_BASED_3D_ENGINEERING_MIM_LF  {1 0 10303 442 1 1 4}'));
ENDSEC;
DATA;
#1=MECHANICAL_DESIGN_GEOMETRIC_PRESENTATION_REPRESENTATION(' ',(#10,#11,#12,#13,#14,#15,#16,#17,#18,#19,#20,#21,#22,#23,#24,#25,#26,#27,#28),#6);
#2=PRODUCT_DEFINITION_CONTEXT('',#29,'design');
#3=APPLICATION_PROTOCOL_DEFINITION('INTERNATIONAL STANDARD','ap242_managed_model_based_3d_engineering',2014,#29);
#4=PRODUCT_CATEGORY_RELATIONSHIP('NONE','NONE',#30,#31);
#5=SHAPE_DEFINITION_REPRESENTATION(#32,#33);
#6= (GEOMETRIC_REPRESENTATION_CONTEXT(3)GLOBAL_UNCERTAINTY_ASSIGNED_CONTEXT((#36))GLOBAL_UNIT_ASSIGNED_CONTEXT((#38,#39,#40))REPRESENTATION_CONTEXT('NONE','WORKSPACE'));
#10=STYLED_ITEM('',(#42),#43);
#11=STYLED_ITEM('',(#44),#45);
#12=STYLED_ITEM('',(#46),#47);
#13=STYLED_ITEM('',(#48),#49);
#14=STYLED_ITEM('',(#50),#51);
#15=STYLED_ITEM('',(#52),#53);
#16=STYLED_ITEM('',(#54),#55);
#17=STYLED_ITEM('',(#56),#57);
#18=STYLED_ITEM('',(#58),#59);
#19=STYLED_ITEM('',(#60),#61);
#20=STYLED_ITEM('',(#62),#63);
#21=STYLED_ITEM('',(#64),#65);
#22=STYLED_ITEM('',(#66),#67);
#23=STYLED_ITEM('',(#68),#69);
#24=STYLED_ITEM('',(#70),#71);
#25=STYLED_ITEM('',(#72),#73);
#26=STYLED_ITEM('',(#74),#75);
#27=STYLED_ITEM('',(#76),#77);
#28=STYLED_ITEM('',(#78),#79);
#29=APPLICATION_CONTEXT('managed model based 3d engineering');
#30=PRODUCT_CATEGORY('part','NONE');
#31=PRODUCT_RELATED_PRODUCT_CATEGORY('detail',' ',(#80));
#32=PRODUCT_DEFINITION_SHAPE('NONE','NONE',#81);
#33=ADVANCED_BREP_SHAPE_REPRESENTATION('42572',(#79,#82),#6);
#36=UNCERTAINTY_MEASURE_WITH_UNIT(LENGTH_MEASURE(1.0E-06),#38,'','');
#38= (CONVERSION_BASED_UNIT('MILLIMETRE',#85)LENGTH_UNIT()NAMED_UNIT(#88));
#39= (NAMED_UNIT(#90)PLANE_ANGLE_UNIT()SI_UNIT($,.RADIAN.));
#40= (NAMED_UNIT(#90)SOLID_ANGLE_UNIT()SI_UNIT($,.STERADIAN.));
#42=PRESENTATION_STYLE_ASSIGNMENT((#96));
#43=ADVANCED_FACE('NONE',(#97),#98,.F.);
#44=PRESENTATION_STYLE_ASSIGNMENT((#99));
#45=ADVANCED_FACE('NONE',(#100),#101,.F.);
#46=PRESENTATION_STYLE_ASSIGNMENT((#102));
#47=ADVANCED_FACE('NONE',(#103),#104,.F.);
#48=PRESENTATION_STYLE_ASSIGNMENT((#105));
#49=ADVANCED_FACE('NONE',(#106),#107,.F.);
#50=PRESENTATION_STYLE_ASSIGNMENT((#108));
#51=ADVANCED_FACE('NONE',(#109),#110,.F.);
#52=PRESENTATION_STYLE_ASSIGNMENT((#111));
#53=ADVANCED_FACE('NONE',(#112),#113,.F.);
#54=PRESENTATION_STYLE_ASSIGNMENT((#114));
#55=ADVANCED_FACE('NONE',(#115),#116,.F.);
#56=PRESENTATION_STYLE_ASSIGNMENT((#117));
#57=ADVANCED_FACE('NONE',(#118,#119,#120),#121,.T.);
#58=PRESENTATION_STYLE_ASSIGNMENT((#122));
#59=ADVANCED_FACE('NONE',(#123),#124,.F.);
#60=PRESENTATION_STYLE_ASSIGNMENT((#125));
#61=ADVANCED_FACE('NONE',(#126),#127,.F.);
#62=PRESENTATION_STYLE_ASSIGNMENT((#128));
#63=ADVANCED_FACE('NONE',(#129),#130,.F.);
#64=PRESENTATION_STYLE_ASSIGNMENT((#131));
#65=ADVANCED_FACE('NONE',(#132),#133,.F.);
#66=PRESENTATION_STYLE_ASSIGNMENT((#134));
#67=ADVANCED_FACE('NONE',(#135),#136,.F.);
#68=PRESENTATION_STYLE_ASSIGNMENT((#137));
#69=ADVANCED_FACE('NONE',(#138),#139,.F.);
#70=PRESENTATION_STYLE_ASSIGNMENT((#140));
#71=ADVANCED_FACE('NONE',(#141,#142,#143),#144,.F.);
#72=PRESENTATION_STYLE_ASSIGNMENT((#145));
#73=ADVANCED_FACE('NONE',(#146),#147,.T.);
#74=PRESENTATION_STYLE_ASSIGNMENT((#148));
#75=ADVANCED_FACE('NONE',(#149),#150,.F.);
#76=PRESENTATION_STYLE_ASSIGNMENT((#151));
#77=ADVANCED_FACE('NONE',(#152),#153,.F.);
#78=PRESENTATION_STYLE_ASSIGNMENT((#154));
#79=MANIFOLD_SOLID_BREP('42572',#155);
#80=PRODUCT('42572','','PART--DESC',(#156));
#81=PRODUCT_DEFINITION('','NONE',#157,#2);
#82=AXIS2_PLACEMENT_3D('',#158,#159,#160);
#85=LENGTH_MEASURE_WITH_UNIT(LENGTH_MEASURE(1.0),#161);
#88=DIMENSIONAL_EXPONENTS(1.0,0.0,0.0,0.0,0.0,0.0,0.0);
#90=DIMENSIONAL_EXPONENTS(0.0,0.0,0.0,0.0,0.0,0.0,0.0);
#96=SURFACE_STYLE_USAGE(.BOTH.,#162);
#97=FACE_OUTER_BOUND('',#163,.T.);
#98=CYLINDRICAL_SURFACE('',#164,3.0);
#99=SURFACE_STYLE_USAGE(.BOTH.,#165);
#100=FACE_OUTER_BOUND('',#166,.T.);
#101=CYLINDRICAL_SURFACE('',#167,3.0);
#102=SURFACE_STYLE_USAGE(.BOTH.,#168);
#103=FACE_OUTER_BOUND('',#169,.T.);
#104=PLANE('',#170);
#105=SURFACE_STYLE_USAGE(.BOTH.,#171);
#106=FACE_OUTER_BOUND('',#172,.T.);
#107=PLANE('',#173);
#108=SURFACE_STYLE_USAGE(.BOTH.,#174);
#109=FACE_OUTER_BOUND('',#175,.T.);
#110=PLANE('',#176);
#111=SURFACE_STYLE_USAGE(.BOTH.,#177);
#112=FACE_OUTER_BOUND('',#178,.T.);
#113=PLANE('',#179);
#114=SURFACE_STYLE_USAGE(.BOTH.,#180);
#115=FACE_OUTER_BOUND('',#181,.T.);
#116=PLANE('',#182);
#117=SURFACE_STYLE_USAGE(.BOTH.,#183);
#118=FACE_OUTER_BOUND('',#184,.T.);
#119=FACE_BOUND('',#185,.T.);
#120=FACE_BOUND('',#186,.T.);
#121=PLANE('',#187);
#122=SURFACE_STYLE_USAGE(.BOTH.,#188);
#123=FACE_OUTER_BOUND('',#189,.T.);
#124=PLANE('',#190);
#125=SURFACE_STYLE_USAGE(.BOTH.,#191);
#126=FACE_OUTER_BOUND('',#192,.T.);
#127=PLANE('',#193);
#128=SURFACE_STYLE_USAGE(.BOTH.,#194);
#129=FACE_OUTER_BOUND('',#195,.T.);
#130=PLANE('',#196);
#131=SURFACE_STYLE_USAGE(.BOTH.,#197);
#132=FACE_OUTER_BOUND('',#198,.T.);
#133=PLANE('',#199);
#134=SURFACE_STYLE_USAGE(.BOTH.,#200);
#135=FACE_OUTER_BOUND('',#201,.T.);
#136=PLANE('',#202);
#137=SURFACE_STYLE_USAGE(.BOTH.,#203);
#138=FACE_OUTER_BOUND('',#204,.T.);
#139=PLANE('',#205);
#140=SURFACE_STYLE_USAGE(.BOTH.,#206);
#141=FACE_OUTER_BOUND('',#207,.T.);
#142=FACE_BOUND('',#208,.T.);
#143=FACE_BOUND('',#209,.T.);
#144=PLANE('',#210);
#145=SURFACE_STYLE_USAGE(.BOTH.,#211);
#146=FACE_OUTER_BOUND('',#212,.T.);
#147=PLANE('',#213);
#148=SURFACE_STYLE_USAGE(.BOTH.,#214);
#149=FACE_OUTER_BOUND('',#215,.T.);
#150=CYLINDRICAL_SURFACE('',#216,3.0);
#151=SURFACE_STYLE_USAGE(.BOTH.,#217);
#152=FACE_OUTER_BOUND('',#218,.T.);
#153=CYLINDRICAL_SURFACE('',#219,3.0);
#154=SURFACE_STYLE_USAGE(.BOTH.,#220);
#155=CLOSED_SHELL('',(#43,#45,#47,#49,#51,#53,#55,#57,#59,#61,#63,#65,#67,#69,#71,#73,#75,#77));
#156=PRODUCT_CONTEXT('',#29,'mechanical');
#157=PRODUCT_DEFINITION_FORMATION_WITH_SPECIFIED_SOURCE(' ','NONE',#80,.NOT_KNOWN.);
#158=CARTESIAN_POINT('',(0.0,0.0,0.0));
#159=DIRECTION('',(0.0,0.0,1.0));
#160=DIRECTION('',(1.0,0.0,0.0));
#161= (NAMED_UNIT(#88)LENGTH_UNIT()SI_UNIT(.MILLI.,.METRE.));
#162=SURFACE_SIDE_STYLE('',(#222));
#163=EDGE_LOOP('',(#223,#224,#225,#226));
#164=AXIS2_PLACEMENT_3D('',#227,#228,#229);
#165=SURFACE_SIDE_STYLE('',(#230));
#166=EDGE_LOOP('',(#231,#232,#233,#234));
#167=AXIS2_PLACEMENT_3D('',#235,#236,#237);
#168=SURFACE_SIDE_STYLE('',(#238));
#169=EDGE_LOOP('',(#239,#240,#241,#242,#243,#244,#245,#246));
#170=AXIS2_PLACEMENT_3D('',#247,#248,#249);
#171=SURFACE_SIDE_STYLE('',(#250));
#172=EDGE_LOOP('',(#251,#252,#253,#254));
#173=AXIS2_PLACEMENT_3D('',#255,#256,#257);
#174=SURFACE_SIDE_STYLE('',(#258));
#175=EDGE_LOOP('',(#259,#260,#261,#262));
#176=AXIS2_PLACEMENT_3D('',#263,#264,#265);
#177=SURFACE_SIDE_STYLE('',(#266));
#178=EDGE_LOOP('',(#267,#268,#269,#270));
#179=AXIS2_PLACEMENT_3D('',#271,#272,#273);
#180=SURFACE_SIDE_STYLE('',(#274));
#181=EDGE_LOOP('',(#275,#276,#277,#278,#279,#280,#281,#282,#283,#284,#285,#286));
#182=AXIS2_PLACEMENT_3D('',#287,#288,#289);
#183=SURFACE_SIDE_STYLE('',(#290));
#184=EDGE_LOOP('',(#291,#292,#293,#294));
#185=EDGE_LOOP('',(#295,#296));
#186=EDGE_LOOP('',(#297,#298));
#187=AXIS2_PLACEMENT_3D('',#299,#300,#301);
#188=SURFACE_SIDE_STYLE('',(#302));
#189=EDGE_LOOP('',(#303,#304,#305,#306));
#190=AXIS2_PLACEMENT_3D('',#307,#308,#309);
#191=SURFACE_SIDE_STYLE('',(#310));
#192=EDGE_LOOP('',(#311,#312,#313,#314));
#193=AXIS2_PLACEMENT_3D('',#315,#316,#317);
#194=SURFACE_SIDE_STYLE('',(#318));
#195=EDGE_LOOP('',(#319,#320,#321,#322));
#196=AXIS2_PLACEMENT_3D('',#323,#324,#325);
#197=SURFACE_SIDE_STYLE('',(#326));
#198=EDGE_LOOP('',(#327,#328,#329,#330));
#199=AXIS2_PLACEMENT_3D('',#331,#332,#333);
#200=SURFACE_SIDE_STYLE('',(#334));
#201=EDGE_LOOP('',(#335,#336,#337,#338));
#202=AXIS2_PLACEMENT_3D('',#339,#340,#341);
#203=SURFACE_SIDE_STYLE('',(#342));
#204=EDGE_LOOP('',(#343,#344,#345,#346));
#205=AXIS2_PLACEMENT_3D('',#347,#348,#349);
#206=SURFACE_SIDE_STYLE('',(#350));
#207=EDGE_LOOP('',(#351,#352,#353,#354));
#208=EDGE_LOOP('',(#355,#356));
#209=EDGE_LOOP('',(#357,#358));
#210=AXIS2_PLACEMENT_3D('',#359,#360,#361);
#211=SURFACE_SIDE_STYLE('',(#362));
#212=EDGE_LOOP('',(#363,#364,#365,#366,#367,#368,#369,#370));
#213=AXIS2_PLACEMENT_3D('',#371,#372,#373);
#214=SURFACE_SIDE_STYLE('',(#374));
#215=EDGE_LOOP('',(#375,#376,#377,#378));
#216=AXIS2_PLACEMENT_3D('',#379,#380,#381);
#217=SURFACE_SIDE_STYLE('',(#382));
#218=EDGE_LOOP('',(#383,#384,#385,#386));
#219=AXIS2_PLACEMENT_3D('',#387,#388,#389);
#220=SURFACE_SIDE_STYLE('',(#390));
#222=SURFACE_STYLE_FILL_AREA(#391);
#223=ORIENTED_EDGE('',*,*,#392,.T.);
#224=ORIENTED_EDGE('',*,*,#393,.T.);
#225=ORIENTED_EDGE('',*,*,#394,.T.);
#226=ORIENTED_EDGE('',*,*,#395,.F.);
#227=CARTESIAN_POINT('',(-3.8,-10.0,-8.0));
#228=DIRECTION('',(0.0,0.0,-1.0));
#229=DIRECTION('',(1.0,0.0,0.0));
#230=SURFACE_STYLE_FILL_AREA(#396);
#231=ORIENTED_EDGE('',*,*,#397,.T.);
#232=ORIENTED_EDGE('',*,*,#398,.T.);
#233=ORIENTED_EDGE('',*,*,#399,.T.);
#234=ORIENTED_EDGE('',*,*,#400,.F.);
#235=CARTESIAN_POINT('',(3.8,-10.0,-8.0));
#236=DIRECTION('',(0.0,0.0,-1.0));
#237=DIRECTION('',(1.0,0.0,0.0));
#238=SURFACE_STYLE_FILL_AREA(#401);
#239=ORIENTED_EDGE('',*,*,#402,.F.);
#240=ORIENTED_EDGE('',*,*,#403,.T.);
#241=ORIENTED_EDGE('',*,*,#404,.T.);
#242=ORIENTED_EDGE('',*,*,#405,.T.);
#243=ORIENTED_EDGE('',*,*,#406,.T.);
#244=ORIENTED_EDGE('',*,*,#407,.T.);
#245=ORIENTED_EDGE('',*,*,#408,.F.);
#246=ORIENTED_EDGE('',*,*,#409,.F.);
#247=CARTESIAN_POINT('',(-9.5,1.73472347597681E-15,2.0));
#248=DIRECTION('',(0.0,0.0,-1.0));
#249=DIRECTION('',(0.0,-1.0,0.0));
#250=SURFACE_STYLE_FILL_AREA(#410);
#251=ORIENTED_EDGE('',*,*,#411,.T.);
#252=ORIENTED_EDGE('',*,*,#412,.F.);
#253=ORIENTED_EDGE('',*,*,#404,.F.);
#254=ORIENTED_EDGE('',*,*,#413,.T.);
#255=CARTESIAN_POINT('',(-9.5,-20.0,2.0));
#256=DIRECTION('',(1.0,0.0,0.0));
#257=DIRECTION('',(0.0,1.0,-0.0));
#258=SURFACE_STYLE_FILL_AREA(#414);
#259=ORIENTED_EDGE('',*,*,#415,.T.);
#260=ORIENTED_EDGE('',*,*,#416,.F.);
#261=ORIENTED_EDGE('',*,*,#405,.F.);
#262=ORIENTED_EDGE('',*,*,#412,.T.);
#263=CARTESIAN_POINT('',(-9.5,-20.0,2.0));
#264=DIRECTION('',(0.0,1.0,0.0));
#265=DIRECTION('',(1.0,0.0,-0.0));
#266=SURFACE_STYLE_FILL_AREA(#417);
#267=ORIENTED_EDGE('',*,*,#418,.T.);
#268=ORIENTED_EDGE('',*,*,#419,.F.);
#269=ORIENTED_EDGE('',*,*,#406,.F.);
#270=ORIENTED_EDGE('',*,*,#416,.T.);
#271=CARTESIAN_POINT('',(9.5,-20.0,2.0));
#272=DIRECTION('',(-1.0,0.0,0.0));
#273=DIRECTION('',(0.0,0.0,1.0));
#274=SURFACE_STYLE_FILL_AREA(#420);
#275=ORIENTED_EDGE('',*,*,#421,.T.);
#276=ORIENTED_EDGE('',*,*,#413,.F.);
#277=ORIENTED_EDGE('',*,*,#403,.F.);
#278=ORIENTED_EDGE('',*,*,#422,.F.);
#279=ORIENTED_EDGE('',*,*,#423,.T.);
#280=ORIENTED_EDGE('',*,*,#424,.F.);
#281=ORIENTED_EDGE('',*,*,#425,.F.);
#282=ORIENTED_EDGE('',*,*,#426,.T.);
#283=ORIENTED_EDGE('',*,*,#427,.T.);
#284=ORIENTED_EDGE('',*,*,#428,.T.);
#285=ORIENTED_EDGE('',*,*,#407,.F.);
#286=ORIENTED_EDGE('',*,*,#419,.T.);
#287=CARTESIAN_POINT('',(-9.5,1.73472347597681E-15,2.0));
#288=DIRECTION('',(0.0,-1.0,0.0));
#289=DIRECTION('',(0.0,0.0,-1.0));
#290=SURFACE_STYLE_FILL_AREA(#429);
#291=ORIENTED_EDGE('',*,*,#411,.F.);
#292=ORIENTED_EDGE('',*,*,#421,.F.);
#293=ORIENTED_EDGE('',*,*,#418,.F.);
#294=ORIENTED_EDGE('',*,*,#415,.F.);
#295=ORIENTED_EDGE('',*,*,#392,.F.);
#296=ORIENTED_EDGE('',*,*,#430,.F.);
#297=ORIENTED_EDGE('',*,*,#397,.F.);
#298=ORIENTED_EDGE('',*,*,#431,.F.);
#299=CARTESIAN_POINT('',(-9.5,1.73472347597681E-15,0.0));
#300=DIRECTION('',(0.0,0.0,-1.0));
#301=DIRECTION('',(0.0,-1.0,0.0));
#302=SURFACE_STYLE_FILL_AREA(#432);
#303=ORIENTED_EDGE('',*,*,#402,.T.);
#304=ORIENTED_EDGE('',*,*,#433,.F.);
#305=ORIENTED_EDGE('',*,*,#434,.F.);
#306=ORIENTED_EDGE('',*,*,#422,.T.);
#307=CARTESIAN_POINT('',(-8.5,1.73472347597681E-15,10.0));
#308=DIRECTION('',(1.0,7.61079395596854E-49,8.33591561801955E-33));
#309=DIRECTION('',(0.0,1.0,-9.13012355777267E-17));
#310=SURFACE_STYLE_FILL_AREA(#435);
#311=ORIENTED_EDGE('',*,*,#409,.T.);
#312=ORIENTED_EDGE('',*,*,#436,.F.);
#313=ORIENTED_EDGE('',*,*,#437,.F.);
#314=ORIENTED_EDGE('',*,*,#433,.T.);
#315=CARTESIAN_POINT('',(-8.5,-19.0,10.0));
#316=DIRECTION('',(0.0,1.0,0.0));
#317=DIRECTION('',(1.0,0.0,-0.0));
#318=SURFACE_STYLE_FILL_AREA(#438);
#319=ORIENTED_EDGE('',*,*,#408,.T.);
#320=ORIENTED_EDGE('',*,*,#428,.F.);
#321=ORIENTED_EDGE('',*,*,#439,.F.);
#322=ORIENTED_EDGE('',*,*,#436,.T.);
#323=CARTESIAN_POINT('',(8.5,1.73472347597681E-15,10.0));
#324=DIRECTION('',(-1.0,-3.65204942310907E-16,0.0));
#325=DIRECTION('',(-3.65204942310907E-16,1.0,0.0));
#326=SURFACE_STYLE_FILL_AREA(#440);
#327=ORIENTED_EDGE('',*,*,#441,.T.);
#328=ORIENTED_EDGE('',*,*,#442,.F.);
#329=ORIENTED_EDGE('',*,*,#443,.F.);
#330=ORIENTED_EDGE('',*,*,#424,.T.);
#331=CARTESIAN_POINT('',(-9.5,-20.0,12.0));
#332=DIRECTION('',(1.0,0.0,0.0));
#333=DIRECTION('',(0.0,1.0,-0.0));
#334=SURFACE_STYLE_FILL_AREA(#444);
#335=ORIENTED_EDGE('',*,*,#445,.T.);
#336=ORIENTED_EDGE('',*,*,#446,.F.);
#337=ORIENTED_EDGE('',*,*,#447,.F.);
#338=ORIENTED_EDGE('',*,*,#442,.T.);
#339=CARTESIAN_POINT('',(-9.5,-20.0,12.0));
#340=DIRECTION('',(0.0,1.0,0.0));
#341=DIRECTION('',(1.0,0.0,-0.0));
#342=SURFACE_STYLE_FILL_AREA(#448);
#343=ORIENTED_EDGE('',*,*,#449,.T.);
#344=ORIENTED_EDGE('',*,*,#426,.F.);
#345=ORIENTED_EDGE('',*,*,#450,.F.);
#346=ORIENTED_EDGE('',*,*,#446,.T.);
#347=CARTESIAN_POINT('',(9.5,-20.0,12.0));
#348=DIRECTION('',(-1.0,0.0,0.0));
#349=DIRECTION('',(0.0,0.0,1.0));
#350=SURFACE_STYLE_FILL_AREA(#451);
#351=ORIENTED_EDGE('',*,*,#443,.T.);
#352=ORIENTED_EDGE('',*,*,#447,.T.);
#353=ORIENTED_EDGE('',*,*,#450,.T.);
#354=ORIENTED_EDGE('',*,*,#425,.T.);
#355=ORIENTED_EDGE('',*,*,#452,.F.);
#356=ORIENTED_EDGE('',*,*,#394,.F.);
#357=ORIENTED_EDGE('',*,*,#453,.F.);
#358=ORIENTED_EDGE('',*,*,#399,.F.);
#359=CARTESIAN_POINT('',(-9.5,1.73472347597681E-15,12.0));
#360=DIRECTION('',(0.0,0.0,-1.0));
#361=DIRECTION('',(0.0,-1.0,0.0));
#362=SURFACE_STYLE_FILL_AREA(#454);
#363=ORIENTED_EDGE('',*,*,#423,.F.);
#364=ORIENTED_EDGE('',*,*,#434,.T.);
#365=ORIENTED_EDGE('',*,*,#437,.T.);
#366=ORIENTED_EDGE('',*,*,#439,.T.);
#367=ORIENTED_EDGE('',*,*,#427,.F.);
#368=ORIENTED_EDGE('',*,*,#449,.F.);
#369=ORIENTED_EDGE('',*,*,#445,.F.);
#370=ORIENTED_EDGE('',*,*,#441,.F.);
#371=CARTESIAN_POINT('',(-9.5,1.73472347597681E-15,10.0));
#372=DIRECTION('',(0.0,0.0,-1.0));
#373=DIRECTION('',(0.0,-1.0,0.0));
#374=SURFACE_STYLE_FILL_AREA(#455);
#375=ORIENTED_EDGE('',*,*,#398,.F.);
#376=ORIENTED_EDGE('',*,*,#431,.T.);
#377=ORIENTED_EDGE('',*,*,#400,.T.);
#378=ORIENTED_EDGE('',*,*,#453,.T.);
#379=CARTESIAN_POINT('',(3.8,-10.0,-8.0));
#380=DIRECTION('',(0.0,0.0,-1.0));
#381=DIRECTION('',(1.0,0.0,0.0));
#382=SURFACE_STYLE_FILL_AREA(#456);
#383=ORIENTED_EDGE('',*,*,#393,.F.);
#384=ORIENTED_EDGE('',*,*,#430,.T.);
#385=ORIENTED_EDGE('',*,*,#395,.T.);
#386=ORIENTED_EDGE('',*,*,#452,.T.);
#387=CARTESIAN_POINT('',(-3.8,-10.0,-8.0));
#388=DIRECTION('',(0.0,0.0,-1.0));
#389=DIRECTION('',(1.0,0.0,0.0));
#390=SURFACE_STYLE_FILL_AREA(#457);
#391=FILL_AREA_STYLE('',(#458));
#392=EDGE_CURVE('NONE',#459,#460,#461,.T.);
#393=EDGE_CURVE('NONE',#460,#462,#463,.T.);
#394=EDGE_CURVE('NONE',#462,#464,#465,.T.);
#395=EDGE_CURVE('NONE',#459,#464,#466,.T.);
#396=FILL_AREA_STYLE('',(#467));
#397=EDGE_CURVE('NONE',#468,#469,#470,.T.);
#398=EDGE_CURVE('NONE',#469,#471,#472,.T.);
#399=EDGE_CURVE('NONE',#471,#473,#474,.T.);
#400=EDGE_CURVE('NONE',#468,#473,#475,.T.);
#401=FILL_AREA_STYLE('',(#476));
#402=EDGE_CURVE('NONE',#477,#478,#479,.T.);
#403=EDGE_CURVE('NONE',#477,#480,#481,.T.);
#404=EDGE_CURVE('NONE',#480,#482,#483,.T.);
#405=EDGE_CURVE('NONE',#482,#484,#485,.T.);
#406=EDGE_CURVE('NONE',#484,#486,#487,.T.);
#407=EDGE_CURVE('NONE',#486,#488,#489,.T.);
#408=EDGE_CURVE('NONE',#490,#488,#491,.T.);
#409=EDGE_CURVE('NONE',#478,#490,#492,.T.);
#410=FILL_AREA_STYLE('',(#493));
#411=EDGE_CURVE('NONE',#494,#495,#496,.T.);
#412=EDGE_CURVE('NONE',#482,#495,#497,.T.);
#413=EDGE_CURVE('NONE',#480,#494,#498,.T.);
#414=FILL_AREA_STYLE('',(#499));
#415=EDGE_CURVE('NONE',#495,#500,#501,.T.);
#416=EDGE_CURVE('NONE',#484,#500,#502,.T.);
#417=FILL_AREA_STYLE('',(#503));
#418=EDGE_CURVE('NONE',#500,#504,#505,.T.);
#419=EDGE_CURVE('NONE',#486,#504,#506,.T.);
#420=FILL_AREA_STYLE('',(#507));
#421=EDGE_CURVE('NONE',#504,#494,#508,.T.);
#422=EDGE_CURVE('NONE',#509,#477,#510,.T.);
#423=EDGE_CURVE('NONE',#509,#511,#512,.T.);
#424=EDGE_CURVE('NONE',#513,#511,#514,.T.);
#425=EDGE_CURVE('NONE',#515,#513,#516,.T.);
#426=EDGE_CURVE('NONE',#515,#517,#518,.T.);
#427=EDGE_CURVE('NONE',#517,#519,#520,.T.);
#428=EDGE_CURVE('NONE',#519,#488,#521,.T.);
#429=FILL_AREA_STYLE('',(#522));
#430=EDGE_CURVE('NONE',#460,#459,#523,.T.);
#431=EDGE_CURVE('NONE',#469,#468,#524,.T.);
#432=FILL_AREA_STYLE('',(#525));
#433=EDGE_CURVE('NONE',#526,#478,#527,.T.);
#434=EDGE_CURVE('NONE',#509,#526,#528,.T.);
#435=FILL_AREA_STYLE('',(#529));
#436=EDGE_CURVE('NONE',#530,#490,#531,.T.);
#437=EDGE_CURVE('NONE',#526,#530,#532,.T.);
#438=FILL_AREA_STYLE('',(#533));
#439=EDGE_CURVE('NONE',#530,#519,#534,.T.);
#440=FILL_AREA_STYLE('',(#535));
#441=EDGE_CURVE('NONE',#511,#536,#537,.T.);
#442=EDGE_CURVE('NONE',#538,#536,#539,.T.);
#443=EDGE_CURVE('NONE',#513,#538,#540,.T.);
#444=FILL_AREA_STYLE('',(#541));
#445=EDGE_CURVE('NONE',#536,#542,#543,.T.);
#446=EDGE_CURVE('NONE',#544,#542,#545,.T.);
#447=EDGE_CURVE('NONE',#538,#544,#546,.T.);
#448=FILL_AREA_STYLE('',(#547));
#449=EDGE_CURVE('NONE',#542,#517,#548,.T.);
#450=EDGE_CURVE('NONE',#544,#515,#549,.T.);
#451=FILL_AREA_STYLE('',(#550));
#452=EDGE_CURVE('NONE',#464,#462,#551,.T.);
#453=EDGE_CURVE('NONE',#473,#471,#552,.T.);
#454=FILL_AREA_STYLE('',(#553));
#455=FILL_AREA_STYLE('',(#554));
#456=FILL_AREA_STYLE('',(#555));
#457=FILL_AREA_STYLE('',(#556));
#458=FILL_AREA_STYLE_COLOUR('',#557);
#459=VERTEX_POINT('NONE',#558);
#460=VERTEX_POINT('NONE',#559);
#461=CIRCLE('',#560,3.0);
#462=VERTEX_POINT('NONE',#561);
#463=LINE('',#562,#563);
#464=VERTEX_POINT('NONE',#564);
#465=CIRCLE('',#565,3.0);
#466=LINE('',#566,#567);
#467=FILL_AREA_STYLE_COLOUR('',#568);
#468=VERTEX_POINT('NONE',#569);
#469=VERTEX_POINT('NONE',#570);
#470=CIRCLE('',#571,3.0);
#471=VERTEX_POINT('NONE',#572);
#472=LINE('',#573,#574);
#473=VERTEX_POINT('NONE',#575);
#474=CIRCLE('',#576,3.0);
#475=LINE('',#577,#578);
#476=FILL_AREA_STYLE_COLOUR('',#579);
#477=VERTEX_POINT('NONE',#580);
#478=VERTEX_POINT('NONE',#581);
#479=LINE('',#582,#583);
#480=VERTEX_POINT('NONE',#584);
#481=LINE('',#585,#586);
#482=VERTEX_POINT('NONE',#587);
#483=LINE('',#588,#589);
#484=VERTEX_POINT('NONE',#590);
#485=LINE('',#591,#592);
#486=VERTEX_POINT('NONE',#593);
#487=LINE('',#594,#595);
#488=VERTEX_POINT('NONE',#596);
#489=LINE('',#597,#598);
#490=VERTEX_POINT('NONE',#599);
#491=LINE('',#600,#601);
#492=LINE('',#602,#603);
#493=FILL_AREA_STYLE_COLOUR('',#604);
#494=VERTEX_POINT('NONE',#605);
#495=VERTEX_POINT('NONE',#606);
#496=LINE('',#607,#608);
#497=LINE('',#609,#610);
#498=LINE('',#611,#612);
#499=FILL_AREA_STYLE_COLOUR('',#613);
#500=VERTEX_POINT('NONE',#614);
#501=LINE('',#615,#616);
#502=LINE('',#617,#618);
#503=FILL_AREA_STYLE_COLOUR('',#619);
#504=VERTEX_POINT('NONE',#620);
#505=LINE('',#621,#622);
#506=LINE('',#623,#624);
#507=FILL_AREA_STYLE_COLOUR('',#625);
#508=LINE('',#626,#627);
#509=VERTEX_POINT('NONE',#628);
#510=LINE('',#629,#630);
#511=VERTEX_POINT('NONE',#631);
#512=LINE('',#632,#633);
#513=VERTEX_POINT('NONE',#634);
#514=LINE('',#635,#636);
#515=VERTEX_POINT('NONE',#637);
#516=LINE('',#638,#639);
#517=VERTEX_POINT('NONE',#640);
#518=LINE('',#641,#642);
#519=VERTEX_POINT('NONE',#643);
#520=LINE('',#644,#645);
#521=LINE('',#646,#647);
#522=FILL_AREA_STYLE_COLOUR('',#648);
#523=CIRCLE('',#649,3.0);
#524=CIRCLE('',#650,3.0);
#525=FILL_AREA_STYLE_COLOUR('',#651);
#526=VERTEX_POINT('NONE',#652);
#527=LINE('',#653,#654);
#528=LINE('',#655,#656);
#529=FILL_AREA_STYLE_COLOUR('',#657);
#530=VERTEX_POINT('NONE',#658);
#531=LINE('',#659,#660);
#532=LINE('',#661,#662);
#533=FILL_AREA_STYLE_COLOUR('',#663);
#534=LINE('',#664,#665);
#535=FILL_AREA_STYLE_COLOUR('',#666);
#536=VERTEX_POINT('NONE',#667);
#537=LINE('',#668,#669);
#538=VERTEX_POINT('NONE',#670);
#539=LINE('',#671,#672);
#540=LINE('',#673,#674);
#541=FILL_AREA_STYLE_COLOUR('',#675);
#542=VERTEX_POINT('NONE',#676);
#543=LINE('',#677,#678);
#544=VERTEX_POINT('NONE',#679);
#545=LINE('',#680,#681);
#546=LINE('',#682,#683);
#547=FILL_AREA_STYLE_COLOUR('',#684);
#548=LINE('',#685,#686);
#549=LINE('',#687,#688);
#550=FILL_AREA_STYLE_COLOUR('',#689);
#551=CIRCLE('',#690,3.0);
#552=CIRCLE('',#691,3.0);
#553=FILL_AREA_STYLE_COLOUR('',#692);
#554=FILL_AREA_STYLE_COLOUR('',#693);
#555=FILL_AREA_STYLE_COLOUR('',#694);
#556=FILL_AREA_STYLE_COLOUR('',#695);
#557=COLOUR_RGB('',0.752941191196442,0.752941191196442,0.752941191196442);
#558=CARTESIAN_POINT('',(-0.799999999999999,-10.0,0.0));
#559=CARTESIAN_POINT('',(-6.8,-10.0,0.0));
#560=AXIS2_PLACEMENT_3D('',#696,#697,#698);
#561=CARTESIAN_POINT('',(-6.8,-10.0,12.0));
#562=CARTESIAN_POINT('',(-6.8,-10.0,-8.0));
#563=VECTOR('',#699,1000.0);
#564=CARTESIAN_POINT('',(-0.799999999999999,-10.0,12.0));
#565=AXIS2_PLACEMENT_3D('',#700,#701,#702);
#566=CARTESIAN_POINT('',(-0.799999999999999,-10.0,-8.0));
#567=VECTOR('',#703,1000.0);
#568=COLOUR_RGB('',0.752941191196442,0.752941191196442,0.752941191196442);
#569=CARTESIAN_POINT('',(6.8,-10.0,0.0));
#570=CARTESIAN_POINT('',(0.799999999999999,-10.0,0.0));
#571=AXIS2_PLACEMENT_3D('',#704,#705,#706);
#572=CARTESIAN_POINT('',(0.799999999999999,-10.0,12.0));
#573=CARTESIAN_POINT('',(0.799999999999999,-10.0,-8.0));
#574=VECTOR('',#707,1000.0);
#575=CARTESIAN_POINT('',(6.8,-10.0,12.0));
#576=AXIS2_PLACEMENT_3D('',#708,#709,#710);
#577=CARTESIAN_POINT('',(6.8,-10.0,-8.0));
#578=VECTOR('',#711,1000.0);
#579=COLOUR_RGB('',0.752941191196442,0.752941191196442,0.752941191196442);
#580=CARTESIAN_POINT('',(-8.5,1.73472347597681E-15,2.0));
#581=CARTESIAN_POINT('',(-8.5,-19.0,2.0));
#582=CARTESIAN_POINT('',(-8.5,1.73472347597681E-15,2.0));
#583=VECTOR('',#712,1000.0);
#584=CARTESIAN_POINT('',(-9.5,1.73472347597681E-15,2.0));
#585=CARTESIAN_POINT('',(-9.5,1.73472347597681E-15,2.0));
#586=VECTOR('',#713,1000.0);
#587=CARTESIAN_POINT('',(-9.5,-20.0,2.0));
#588=CARTESIAN_POINT('',(-9.5,-20.0,2.0));
#589=VECTOR('',#714,1000.0);
#590=CARTESIAN_POINT('',(9.5,-20.0,2.0));
#591=CARTESIAN_POINT('',(-9.5,-20.0,2.0));
#592=VECTOR('',#715,1000.0);
#593=CARTESIAN_POINT('',(9.5,1.73472347597681E-15,2.0));
#594=CARTESIAN_POINT('',(9.5,-20.0,2.0));
#595=VECTOR('',#716,1000.0);
#596=CARTESIAN_POINT('',(8.5,1.73472347597681E-15,2.0));
#597=CARTESIAN_POINT('',(-9.5,1.73472347597681E-15,2.0));
#598=VECTOR('',#717,1000.0);
#599=CARTESIAN_POINT('',(8.50000000000001,-19.0,2.0));
#600=CARTESIAN_POINT('',(8.5,1.73472347597681E-15,2.0));
#601=VECTOR('',#718,1000.0);
#602=CARTESIAN_POINT('',(-8.5,-19.0,2.0));
#603=VECTOR('',#719,1000.0);
#604=COLOUR_RGB('',0.752941191196442,0.752941191196442,0.752941191196442);
#605=CARTESIAN_POINT('',(-9.5,1.73472347597681E-15,0.0));
#606=CARTESIAN_POINT('',(-9.5,-20.0,0.0));
#607=CARTESIAN_POINT('',(-9.5,-20.0,0.0));
#608=VECTOR('',#720,1000.0);
#609=CARTESIAN_POINT('',(-9.5,-20.0,2.0));
#610=VECTOR('',#721,1000.0);
#611=CARTESIAN_POINT('',(-9.5,1.73472347597681E-15,2.0));
#612=VECTOR('',#722,1000.0);
#613=COLOUR_RGB('',0.752941191196442,0.752941191196442,0.752941191196442);
#614=CARTESIAN_POINT('',(9.5,-20.0,0.0));
#615=CARTESIAN_POINT('',(-9.5,-20.0,0.0));
#616=VECTOR('',#723,1000.0);
#617=CARTESIAN_POINT('',(9.5,-20.0,2.0));
#618=VECTOR('',#724,1000.0);
#619=COLOUR_RGB('',0.752941191196442,0.752941191196442,0.752941191196442);
#620=CARTESIAN_POINT('',(9.5,1.73472347597681E-15,0.0));
#621=CARTESIAN_POINT('',(9.5,-20.0,0.0));
#622=VECTOR('',#725,1000.0);
#623=CARTESIAN_POINT('',(9.5,1.73472347597681E-15,2.0));
#624=VECTOR('',#726,1000.0);
#625=COLOUR_RGB('',0.752941191196442,0.752941191196442,0.752941191196442);
#626=CARTESIAN_POINT('',(-9.5,1.73472347597681E-15,0.0));
#627=VECTOR('',#727,1000.0);
#628=CARTESIAN_POINT('',(-8.5,1.73472347597681E-15,10.0));
#629=CARTESIAN_POINT('',(-8.5,1.73472347597681E-15,10.0));
#630=VECTOR('',#728,1000.0);
#631=CARTESIAN_POINT('',(-9.5,1.73472347597681E-15,10.0));
#632=CARTESIAN_POINT('',(-9.5,1.73472347597681E-15,10.0));
#633=VECTOR('',#729,1000.0);
#634=CARTESIAN_POINT('',(-9.5,1.73472347597681E-15,12.0));
#635=CARTESIAN_POINT('',(-9.5,1.73472347597681E-15,12.0));
#636=VECTOR('',#730,1000.0);
#637=CARTESIAN_POINT('',(9.5,1.73472347597681E-15,12.0));
#638=CARTESIAN_POINT('',(-9.5,1.73472347597681E-15,12.0));
#639=VECTOR('',#731,1000.0);
#640=CARTESIAN_POINT('',(9.5,1.73472347597681E-15,10.0));
#641=CARTESIAN_POINT('',(9.5,1.73472347597681E-15,12.0));
#642=VECTOR('',#732,1000.0);
#643=CARTESIAN_POINT('',(8.5,1.73472347597681E-15,10.0));
#644=CARTESIAN_POINT('',(-9.5,1.73472347597681E-15,10.0));
#645=VECTOR('',#733,1000.0);
#646=CARTESIAN_POINT('',(8.5,1.73472347597681E-15,10.0));
#647=VECTOR('',#734,1000.0);
#648=COLOUR_RGB('',0.752941191196442,0.752941191196442,0.752941191196442);
#649=AXIS2_PLACEMENT_3D('',#735,#736,#737);
#650=AXIS2_PLACEMENT_3D('',#738,#739,#740);
#651=COLOUR_RGB('',0.752941191196442,0.752941191196442,0.752941191196442);
#652=CARTESIAN_POINT('',(-8.5,-19.0,10.0));
#653=CARTESIAN_POINT('',(-8.5,-19.0,10.0));
#654=VECTOR('',#741,1000.0);
#655=CARTESIAN_POINT('',(-8.5,1.73472347597681E-15,10.0));
#656=VECTOR('',#742,1000.0);
#657=COLOUR_RGB('',0.752941191196442,0.752941191196442,0.752941191196442);
#658=CARTESIAN_POINT('',(8.50000000000001,-19.0,10.0));
#659=CARTESIAN_POINT('',(8.50000000000001,-19.0,10.0));
#660=VECTOR('',#743,1000.0);
#661=CARTESIAN_POINT('',(-8.5,-19.0,10.0));
#662=VECTOR('',#744,1000.0);
#663=COLOUR_RGB('',0.752941191196442,0.752941191196442,0.752941191196442);
#664=CARTESIAN_POINT('',(8.5,1.73472347597681E-15,10.0));
#665=VECTOR('',#745,1000.0);
#666=COLOUR_RGB('',0.752941191196442,0.752941191196442,0.752941191196442);
#667=CARTESIAN_POINT('',(-9.5,-20.0,10.0));
#668=CARTESIAN_POINT('',(-9.5,-20.0,10.0));
#669=VECTOR('',#746,1000.0);
#670=CARTESIAN_POINT('',(-9.5,-20.0,12.0));
#671=CARTESIAN_POINT('',(-9.5,-20.0,12.0));
#672=VECTOR('',#747,1000.0);
#673=CARTESIAN_POINT('',(-9.5,-20.0,12.0));
#674=VECTOR('',#748,1000.0);
#675=COLOUR_RGB('',0.752941191196442,0.752941191196442,0.752941191196442);
#676=CARTESIAN_POINT('',(9.5,-20.0,10.0));
#677=CARTESIAN_POINT('',(-9.5,-20.0,10.0));
#678=VECTOR('',#749,1000.0);
#679=CARTESIAN_POINT('',(9.5,-20.0,12.0));
#680=CARTESIAN_POINT('',(9.5,-20.0,12.0));
#681=VECTOR('',#750,1000.0);
#682=CARTESIAN_POINT('',(-9.5,-20.0,12.0));
#683=VECTOR('',#751,1000.0);
#684=COLOUR_RGB('',0.752941191196442,0.752941191196442,0.752941191196442);
#685=CARTESIAN_POINT('',(9.5,-20.0,10.0));
#686=VECTOR('',#752,1000.0);
#687=CARTESIAN_POINT('',(9.5,-20.0,12.0));
#688=VECTOR('',#753,1000.0);
#689=COLOUR_RGB('',0.752941191196442,0.752941191196442,0.752941191196442);
#690=AXIS2_PLACEMENT_3D('',#754,#755,#756);
#691=AXIS2_PLACEMENT_3D('',#757,#758,#759);
#692=COLOUR_RGB('',0.752941191196442,0.752941191196442,0.752941191196442);
#693=COLOUR_RGB('',0.752941191196442,0.752941191196442,0.752941191196442);
#694=COLOUR_RGB('',0.752941191196442,0.752941191196442,0.752941191196442);
#695=COLOUR_RGB('',0.752941191196442,0.752941191196442,0.752941191196442);
#696=CARTESIAN_POINT('',(-3.8,-10.0,0.0));
#697=DIRECTION('',(0.0,0.0,-1.0));
#698=DIRECTION('',(-1.0,0.0,0.0));
#699=DIRECTION('',(-0.0,-0.0,1.0));
#700=CARTESIAN_POINT('',(-3.8,-10.0,12.0));
#701=DIRECTION('',(0.0,0.0,1.0));
#702=DIRECTION('',(1.0,0.0,0.0));
#703=DIRECTION('',(-0.0,-0.0,1.0));
#704=CARTESIAN_POINT('',(3.8,-10.0,0.0));
#705=DIRECTION('',(0.0,0.0,-1.0));
#706=DIRECTION('',(-1.0,0.0,0.0));
#707=DIRECTION('',(-0.0,-0.0,1.0));
#708=CARTESIAN_POINT('',(3.8,-10.0,12.0));
#709=DIRECTION('',(0.0,0.0,1.0));
#710=DIRECTION('',(1.0,0.0,0.0));
#711=DIRECTION('',(-0.0,-0.0,1.0));
#712=DIRECTION('',(9.13012355777267E-17,-1.0,0.0));
#713=DIRECTION('',(-1.0,-0.0,-0.0));
#714=DIRECTION('',(-0.0,-1.0,-0.0));
#715=DIRECTION('',(1.0,0.0,0.0));
#716=DIRECTION('',(0.0,1.0,0.0));
#717=DIRECTION('',(-1.0,-0.0,-0.0));
#718=DIRECTION('',(-3.65204942310907E-16,1.0,-0.0));
#719=DIRECTION('',(1.0,0.0,0.0));
#720=DIRECTION('',(-0.0,-1.0,-0.0));
#721=DIRECTION('',(-0.0,-0.0,-1.0));
#722=DIRECTION('',(-0.0,-0.0,-1.0));
#723=DIRECTION('',(1.0,0.0,0.0));
#724=DIRECTION('',(-0.0,-0.0,-1.0));
#725=DIRECTION('',(0.0,1.0,0.0));
#726=DIRECTION('',(-0.0,-0.0,-1.0));
#727=DIRECTION('',(-1.0,-0.0,-0.0));
#728=DIRECTION('',(-0.0,-0.0,-1.0));
#729=DIRECTION('',(-1.0,-0.0,-0.0));
#730=DIRECTION('',(-0.0,-0.0,-1.0));
#731=DIRECTION('',(-1.0,-0.0,-0.0));
#732=DIRECTION('',(-0.0,-0.0,-1.0));
#733=DIRECTION('',(-1.0,-0.0,-0.0));
#734=DIRECTION('',(-0.0,-0.0,-1.0));
#735=CARTESIAN_POINT('',(-3.8,-10.0,0.0));
#736=DIRECTION('',(0.0,0.0,-1.0));
#737=DIRECTION('',(-1.0,0.0,0.0));
#738=CARTESIAN_POINT('',(3.8,-10.0,0.0));
#739=DIRECTION('',(0.0,0.0,-1.0));
#740=DIRECTION('',(-1.0,0.0,0.0));
#741=DIRECTION('',(-0.0,-0.0,-1.0));
#742=DIRECTION('',(9.13012355777267E-17,-1.0,0.0));
#743=DIRECTION('',(-0.0,-0.0,-1.0));
#744=DIRECTION('',(1.0,0.0,0.0));
#745=DIRECTION('',(-3.65204942310907E-16,1.0,-0.0));
#746=DIRECTION('',(-0.0,-1.0,-0.0));
#747=DIRECTION('',(-0.0,-0.0,-1.0));
#748=DIRECTION('',(-0.0,-1.0,-0.0));
#749=DIRECTION('',(1.0,0.0,0.0));
#750=DIRECTION('',(-0.0,-0.0,-1.0));
#751=DIRECTION('',(1.0,0.0,0.0));
#752=DIRECTION('',(0.0,1.0,0.0));
#753=DIRECTION('',(0.0,1.0,0.0));
#754=CARTESIAN_POINT('',(-3.8,-10.0,12.0));
#755=DIRECTION('',(0.0,0.0,1.0));
#756=DIRECTION('',(1.0,0.0,0.0));
#757=CARTESIAN_POINT('',(3.8,-10.0,12.0));
#758=DIRECTION('',(0.0,0.0,1.0));
#759=DIRECTION('',(1.0,0.0,0.0));
#760=PRESENTATION_LAYER_ASSIGNMENT('-1','NONE',(#79));
ENDSEC;
END-ISO-10303-21;
