ISO-10303-21;
HEADER;
/* Generated by software containing ST-Developer
 * from STEP Tools, Inc. (www.steptools.com) 
 */
/* OPTION: using custom schema-name function */

FILE_DESCRIPTION(
/* description */ (''),
/* implementation_level */ '2;1');

FILE_NAME(
/* name */ '100101607ugm000_b.stp',
/* time_stamp */ '2019-08-23T10:06:04+02:00',
/* author */ (''),
/* organization */ (''),
/* preprocessor_version */ 'ST-DEVELOPER v16.7',
/* originating_system */ 'SIEMENS PLM Software NX 12.0',
/* authorisation */ '');

FILE_SCHEMA (('AUTOMOTIVE_DESIGN { 1 0 10303 214 3 1 1 1 }'));
ENDSEC;

DATA;
#10=GEOMETRICALLY_BOUNDED_WIREFRAME_SHAPE_REPRESENTATION(
'100101607ugm000_b-None',(#33),#612);
#11=PROPERTY_DEFINITION_REPRESENTATION(#15,#13);
#12=PROPERTY_DEFINITION_REPRESENTATION(#16,#14);
#13=REPRESENTATION('',(#17),#612);
#14=REPRESENTATION('',(#18),#612);
#15=PROPERTY_DEFINITION('pmi validation property','',#23);
#16=PROPERTY_DEFINITION('pmi validation property','',#23);
#17=VALUE_REPRESENTATION_ITEM('number of annotations',COUNT_MEASURE(0.));
#18=VALUE_REPRESENTATION_ITEM('number of views',COUNT_MEASURE(0.));
#19=SHAPE_REPRESENTATION_RELATIONSHIP('None',
'relationship between 100101607ugm000_b-None and 100101607ugm000_b-Non
e',#32,#21);
#20=SHAPE_REPRESENTATION_RELATIONSHIP('None',
'relationship between 100101607ugm000_b-None and 100101607ugm000_b-Non
e',#32,#10);
#21=ADVANCED_BREP_SHAPE_REPRESENTATION('100101607ugm000_b-None',(#135),
#612);
#22=SHAPE_DEFINITION_REPRESENTATION(#23,#32);
#23=PRODUCT_DEFINITION_SHAPE('','',#24);
#24=PRODUCT_DEFINITION(' ','',#26,#25);
#25=PRODUCT_DEFINITION_CONTEXT('part definition',#31,'design');
#26=PRODUCT_DEFINITION_FORMATION_WITH_SPECIFIED_SOURCE(' ',' ',#28,
 .NOT_KNOWN.);
#27=PRODUCT_RELATED_PRODUCT_CATEGORY('part','',(#28));
#28=PRODUCT('100101607ugm000_b','100101607ugm000_b',' ',(#29));
#29=PRODUCT_CONTEXT(' ',#31,'mechanical');
#30=APPLICATION_PROTOCOL_DEFINITION('international standard',
'automotive_design',2010,#31);
#31=APPLICATION_CONTEXT(
'core data for automotive mechanical design processes');
#32=SHAPE_REPRESENTATION('100101607ugm000_b-None',(#409),#612);
#33=GEOMETRIC_CURVE_SET('None',(#519,#520));
#34=OVER_RIDING_STYLED_ITEM('',(#386),#156,#382);
#35=OVER_RIDING_STYLED_ITEM('',(#387),#157,#382);
#36=OVER_RIDING_STYLED_ITEM('',(#388),#158,#382);
#37=OVER_RIDING_STYLED_ITEM('',(#389),#159,#382);
#38=OVER_RIDING_STYLED_ITEM('',(#390),#160,#382);
#39=OVER_RIDING_STYLED_ITEM('',(#391),#161,#382);
#40=OVER_RIDING_STYLED_ITEM('',(#392),#162,#382);
#41=OVER_RIDING_STYLED_ITEM('',(#393),#163,#382);
#42=OVER_RIDING_STYLED_ITEM('',(#394),#164,#382);
#43=OVER_RIDING_STYLED_ITEM('',(#395),#165,#382);
#44=OVER_RIDING_STYLED_ITEM('',(#396),#166,#382);
#45=OVER_RIDING_STYLED_ITEM('',(#397),#167,#382);
#46=OVER_RIDING_STYLED_ITEM('',(#398),#168,#382);
#47=OVER_RIDING_STYLED_ITEM('',(#399),#169,#382);
#48=OVER_RIDING_STYLED_ITEM('',(#400),#170,#382);
#49=OVER_RIDING_STYLED_ITEM('',(#401),#171,#382);
#50=SURFACE_STYLE_USAGE(.BOTH.,#67);
#51=SURFACE_STYLE_USAGE(.BOTH.,#68);
#52=SURFACE_STYLE_USAGE(.BOTH.,#69);
#53=SURFACE_STYLE_USAGE(.BOTH.,#70);
#54=SURFACE_STYLE_USAGE(.BOTH.,#71);
#55=SURFACE_STYLE_USAGE(.BOTH.,#72);
#56=SURFACE_STYLE_USAGE(.BOTH.,#73);
#57=SURFACE_STYLE_USAGE(.BOTH.,#74);
#58=SURFACE_STYLE_USAGE(.BOTH.,#75);
#59=SURFACE_STYLE_USAGE(.BOTH.,#76);
#60=SURFACE_STYLE_USAGE(.BOTH.,#77);
#61=SURFACE_STYLE_USAGE(.BOTH.,#78);
#62=SURFACE_STYLE_USAGE(.BOTH.,#79);
#63=SURFACE_STYLE_USAGE(.BOTH.,#80);
#64=SURFACE_STYLE_USAGE(.BOTH.,#81);
#65=SURFACE_STYLE_USAGE(.BOTH.,#82);
#66=SURFACE_STYLE_USAGE(.BOTH.,#83);
#67=SURFACE_SIDE_STYLE('',(#84));
#68=SURFACE_SIDE_STYLE('',(#85));
#69=SURFACE_SIDE_STYLE('',(#86));
#70=SURFACE_SIDE_STYLE('',(#87));
#71=SURFACE_SIDE_STYLE('',(#88));
#72=SURFACE_SIDE_STYLE('',(#89));
#73=SURFACE_SIDE_STYLE('',(#90));
#74=SURFACE_SIDE_STYLE('',(#91));
#75=SURFACE_SIDE_STYLE('',(#92));
#76=SURFACE_SIDE_STYLE('',(#93));
#77=SURFACE_SIDE_STYLE('',(#94));
#78=SURFACE_SIDE_STYLE('',(#95));
#79=SURFACE_SIDE_STYLE('',(#96));
#80=SURFACE_SIDE_STYLE('',(#97));
#81=SURFACE_SIDE_STYLE('',(#98));
#82=SURFACE_SIDE_STYLE('',(#99));
#83=SURFACE_SIDE_STYLE('',(#100));
#84=SURFACE_STYLE_FILL_AREA(#101);
#85=SURFACE_STYLE_FILL_AREA(#102);
#86=SURFACE_STYLE_FILL_AREA(#103);
#87=SURFACE_STYLE_FILL_AREA(#104);
#88=SURFACE_STYLE_FILL_AREA(#105);
#89=SURFACE_STYLE_FILL_AREA(#106);
#90=SURFACE_STYLE_FILL_AREA(#107);
#91=SURFACE_STYLE_FILL_AREA(#108);
#92=SURFACE_STYLE_FILL_AREA(#109);
#93=SURFACE_STYLE_FILL_AREA(#110);
#94=SURFACE_STYLE_FILL_AREA(#111);
#95=SURFACE_STYLE_FILL_AREA(#112);
#96=SURFACE_STYLE_FILL_AREA(#113);
#97=SURFACE_STYLE_FILL_AREA(#114);
#98=SURFACE_STYLE_FILL_AREA(#115);
#99=SURFACE_STYLE_FILL_AREA(#116);
#100=SURFACE_STYLE_FILL_AREA(#117);
#101=FILL_AREA_STYLE('',(#118));
#102=FILL_AREA_STYLE('',(#119));
#103=FILL_AREA_STYLE('',(#120));
#104=FILL_AREA_STYLE('',(#121));
#105=FILL_AREA_STYLE('',(#122));
#106=FILL_AREA_STYLE('',(#123));
#107=FILL_AREA_STYLE('',(#124));
#108=FILL_AREA_STYLE('',(#125));
#109=FILL_AREA_STYLE('',(#126));
#110=FILL_AREA_STYLE('',(#127));
#111=FILL_AREA_STYLE('',(#128));
#112=FILL_AREA_STYLE('',(#129));
#113=FILL_AREA_STYLE('',(#130));
#114=FILL_AREA_STYLE('',(#131));
#115=FILL_AREA_STYLE('',(#132));
#116=FILL_AREA_STYLE('',(#133));
#117=FILL_AREA_STYLE('',(#134));
#118=FILL_AREA_STYLE_COLOUR('',#407);
#119=FILL_AREA_STYLE_COLOUR('',#408);
#120=FILL_AREA_STYLE_COLOUR('',#408);
#121=FILL_AREA_STYLE_COLOUR('',#408);
#122=FILL_AREA_STYLE_COLOUR('',#408);
#123=FILL_AREA_STYLE_COLOUR('',#408);
#124=FILL_AREA_STYLE_COLOUR('',#408);
#125=FILL_AREA_STYLE_COLOUR('',#408);
#126=FILL_AREA_STYLE_COLOUR('',#408);
#127=FILL_AREA_STYLE_COLOUR('',#408);
#128=FILL_AREA_STYLE_COLOUR('',#408);
#129=FILL_AREA_STYLE_COLOUR('',#408);
#130=FILL_AREA_STYLE_COLOUR('',#408);
#131=FILL_AREA_STYLE_COLOUR('',#408);
#132=FILL_AREA_STYLE_COLOUR('',#408);
#133=FILL_AREA_STYLE_COLOUR('',#408);
#134=FILL_AREA_STYLE_COLOUR('',#408);
#135=MANIFOLD_SOLID_BREP('',#136);
#136=CLOSED_SHELL('',(#156,#157,#158,#159,#160,#161,#162,#163,#164,#165,
#166,#167,#168,#169,#170,#171));
#137=CONICAL_SURFACE('',#438,1.00000000000001,44.9999999999995);
#138=(
BOUNDED_SURFACE()
B_SPLINE_SURFACE(2,2,((#583,#584,#585),(#586,#587,#588),(#589,#590,#591),
(#592,#593,#594),(#595,#596,#597),(#598,#599,#600),(#601,#602,#603)),
 .UNSPECIFIED.,.T.,.F.,.F.)
B_SPLINE_SURFACE_WITH_KNOTS((1,2,2,2,2,1),(3,3),(-0.333333333333333,0.,
0.333333333333333,0.666666666666667,1.,1.33333333333333),(0.,1.),
 .UNSPECIFIED.)
GEOMETRIC_REPRESENTATION_ITEM()
RATIONAL_B_SPLINE_SURFACE(((1.,0.836660026294062,1.),(0.5,0.418330013147031,
0.5),(1.,0.836660026294062,1.),(0.5,0.418330013147031,0.5),(1.,0.836660026294062,
1.),(0.5,0.418330013147031,0.5),(1.,0.836660026294062,1.)))
REPRESENTATION_ITEM('')
SURFACE()
);
#139=FACE_BOUND('',#200,.T.);
#140=FACE_BOUND('',#201,.T.);
#141=FACE_BOUND('',#202,.T.);
#142=FACE_BOUND('',#203,.T.);
#143=FACE_BOUND('',#204,.T.);
#144=FACE_BOUND('',#205,.T.);
#145=FACE_BOUND('',#206,.T.);
#146=FACE_BOUND('',#207,.T.);
#147=FACE_BOUND('',#208,.T.);
#148=FACE_BOUND('',#209,.T.);
#149=FACE_BOUND('',#210,.T.);
#150=FACE_BOUND('',#211,.T.);
#151=CYLINDRICAL_SURFACE('',#413,3.);
#152=CYLINDRICAL_SURFACE('',#419,3.);
#153=CYLINDRICAL_SURFACE('',#429,3.5);
#154=CYLINDRICAL_SURFACE('',#433,1.2);
#155=CYLINDRICAL_SURFACE('',#436,1.5);
#156=ADVANCED_FACE('',(#181),#172,.T.);
#157=ADVANCED_FACE('',(#182),#151,.F.);
#158=ADVANCED_FACE('',(#183),#173,.T.);
#159=ADVANCED_FACE('',(#184),#174,.T.);
#160=ADVANCED_FACE('',(#185),#152,.F.);
#161=ADVANCED_FACE('',(#186),#175,.T.);
#162=ADVANCED_FACE('',(#187),#176,.F.);
#163=ADVANCED_FACE('',(#188),#177,.F.);
#164=ADVANCED_FACE('',(#189),#178,.F.);
#165=ADVANCED_FACE('',(#139,#140),#153,.T.);
#166=ADVANCED_FACE('',(#141,#142),#179,.T.);
#167=ADVANCED_FACE('',(#143,#144),#154,.T.);
#168=ADVANCED_FACE('',(#145,#146),#138,.T.);
#169=ADVANCED_FACE('',(#147,#148),#155,.T.);
#170=ADVANCED_FACE('',(#149,#150),#137,.T.);
#171=ADVANCED_FACE('',(#190),#180,.T.);
#172=PLANE('',#411);
#173=PLANE('',#415);
#174=PLANE('',#417);
#175=PLANE('',#421);
#176=PLANE('',#422);
#177=PLANE('',#426);
#178=PLANE('',#427);
#179=PLANE('',#431);
#180=PLANE('',#439);
#181=FACE_OUTER_BOUND('',#191,.T.);
#182=FACE_OUTER_BOUND('',#192,.T.);
#183=FACE_OUTER_BOUND('',#193,.T.);
#184=FACE_OUTER_BOUND('',#194,.T.);
#185=FACE_OUTER_BOUND('',#195,.T.);
#186=FACE_OUTER_BOUND('',#196,.T.);
#187=FACE_OUTER_BOUND('',#197,.T.);
#188=FACE_OUTER_BOUND('',#198,.T.);
#189=FACE_OUTER_BOUND('',#199,.T.);
#190=FACE_OUTER_BOUND('',#212,.T.);
#191=EDGE_LOOP('',(#228,#229));
#192=EDGE_LOOP('',(#230,#231,#232,#233));
#193=EDGE_LOOP('',(#234,#235,#236,#237));
#194=EDGE_LOOP('',(#238,#239));
#195=EDGE_LOOP('',(#240,#241,#242,#243));
#196=EDGE_LOOP('',(#244,#245,#246,#247));
#197=EDGE_LOOP('',(#248,#249,#250,#251,#252,#253,#254,#255));
#198=EDGE_LOOP('',(#256,#257,#258,#259,#260));
#199=EDGE_LOOP('',(#261,#262,#263,#264,#265,#266,#267,#268));
#200=EDGE_LOOP('',(#269));
#201=EDGE_LOOP('',(#270,#271,#272,#273,#274,#275,#276,#277,#278));
#202=EDGE_LOOP('',(#279));
#203=EDGE_LOOP('',(#280));
#204=EDGE_LOOP('',(#281));
#205=EDGE_LOOP('',(#282));
#206=EDGE_LOOP('',(#283));
#207=EDGE_LOOP('',(#284));
#208=EDGE_LOOP('',(#285));
#209=EDGE_LOOP('',(#286));
#210=EDGE_LOOP('',(#287));
#211=EDGE_LOOP('',(#288));
#212=EDGE_LOOP('',(#289));
#213=CIRCLE('',#410,3.);
#214=CIRCLE('',#412,3.);
#215=CIRCLE('',#414,3.5);
#216=CIRCLE('',#416,3.);
#217=CIRCLE('',#418,3.);
#218=CIRCLE('',#420,3.5);
#219=CIRCLE('',#423,3.50000000000003);
#220=CIRCLE('',#424,3.49999999999998);
#221=CIRCLE('',#425,3.49999999999984);
#222=CIRCLE('',#428,3.5);
#223=CIRCLE('',#430,1.2);
#224=CIRCLE('',#432,1.2);
#225=CIRCLE('',#434,1.5);
#226=CIRCLE('',#435,1.5);
#227=CIRCLE('',#437,1.00000000000001);
#228=ORIENTED_EDGE('',*,*,#313,.T.);
#229=ORIENTED_EDGE('',*,*,#314,.T.);
#230=ORIENTED_EDGE('',*,*,#315,.T.);
#231=ORIENTED_EDGE('',*,*,#314,.F.);
#232=ORIENTED_EDGE('',*,*,#316,.T.);
#233=ORIENTED_EDGE('',*,*,#317,.T.);
#234=ORIENTED_EDGE('',*,*,#318,.T.);
#235=ORIENTED_EDGE('',*,*,#319,.T.);
#236=ORIENTED_EDGE('',*,*,#320,.T.);
#237=ORIENTED_EDGE('',*,*,#317,.F.);
#238=ORIENTED_EDGE('',*,*,#321,.T.);
#239=ORIENTED_EDGE('',*,*,#322,.T.);
#240=ORIENTED_EDGE('',*,*,#323,.T.);
#241=ORIENTED_EDGE('',*,*,#322,.F.);
#242=ORIENTED_EDGE('',*,*,#324,.T.);
#243=ORIENTED_EDGE('',*,*,#325,.T.);
#244=ORIENTED_EDGE('',*,*,#326,.T.);
#245=ORIENTED_EDGE('',*,*,#325,.F.);
#246=ORIENTED_EDGE('',*,*,#327,.T.);
#247=ORIENTED_EDGE('',*,*,#328,.T.);
#248=ORIENTED_EDGE('',*,*,#329,.F.);
#249=ORIENTED_EDGE('',*,*,#330,.F.);
#250=ORIENTED_EDGE('',*,*,#327,.F.);
#251=ORIENTED_EDGE('',*,*,#324,.F.);
#252=ORIENTED_EDGE('',*,*,#321,.F.);
#253=ORIENTED_EDGE('',*,*,#323,.F.);
#254=ORIENTED_EDGE('',*,*,#326,.F.);
#255=ORIENTED_EDGE('',*,*,#331,.F.);
#256=ORIENTED_EDGE('',*,*,#332,.F.);
#257=ORIENTED_EDGE('',*,*,#329,.T.);
#258=ORIENTED_EDGE('',*,*,#333,.F.);
#259=ORIENTED_EDGE('',*,*,#334,.F.);
#260=ORIENTED_EDGE('',*,*,#335,.F.);
#261=ORIENTED_EDGE('',*,*,#334,.T.);
#262=ORIENTED_EDGE('',*,*,#336,.F.);
#263=ORIENTED_EDGE('',*,*,#318,.F.);
#264=ORIENTED_EDGE('',*,*,#316,.F.);
#265=ORIENTED_EDGE('',*,*,#313,.F.);
#266=ORIENTED_EDGE('',*,*,#315,.F.);
#267=ORIENTED_EDGE('',*,*,#320,.F.);
#268=ORIENTED_EDGE('',*,*,#337,.F.);
#269=ORIENTED_EDGE('',*,*,#338,.T.);
#270=ORIENTED_EDGE('',*,*,#337,.T.);
#271=ORIENTED_EDGE('',*,*,#319,.F.);
#272=ORIENTED_EDGE('',*,*,#336,.T.);
#273=ORIENTED_EDGE('',*,*,#333,.T.);
#274=ORIENTED_EDGE('',*,*,#331,.T.);
#275=ORIENTED_EDGE('',*,*,#328,.F.);
#276=ORIENTED_EDGE('',*,*,#330,.T.);
#277=ORIENTED_EDGE('',*,*,#332,.T.);
#278=ORIENTED_EDGE('',*,*,#335,.T.);
#279=ORIENTED_EDGE('',*,*,#339,.T.);
#280=ORIENTED_EDGE('',*,*,#338,.F.);
#281=ORIENTED_EDGE('',*,*,#339,.F.);
#282=ORIENTED_EDGE('',*,*,#340,.T.);
#283=ORIENTED_EDGE('',*,*,#340,.F.);
#284=ORIENTED_EDGE('',*,*,#341,.T.);
#285=ORIENTED_EDGE('',*,*,#341,.F.);
#286=ORIENTED_EDGE('',*,*,#342,.T.);
#287=ORIENTED_EDGE('',*,*,#342,.F.);
#288=ORIENTED_EDGE('',*,*,#343,.T.);
#289=ORIENTED_EDGE('',*,*,#343,.F.);
#290=VERTEX_POINT('',#522);
#291=VERTEX_POINT('',#523);
#292=VERTEX_POINT('',#527);
#293=VERTEX_POINT('',#529);
#294=VERTEX_POINT('',#533);
#295=VERTEX_POINT('',#535);
#296=VERTEX_POINT('',#539);
#297=VERTEX_POINT('',#540);
#298=VERTEX_POINT('',#544);
#299=VERTEX_POINT('',#546);
#300=VERTEX_POINT('',#550);
#301=VERTEX_POINT('',#552);
#302=VERTEX_POINT('',#556);
#303=VERTEX_POINT('',#557);
#304=VERTEX_POINT('',#562);
#305=VERTEX_POINT('',#564);
#306=VERTEX_POINT('',#566);
#307=VERTEX_POINT('',#573);
#308=VERTEX_POINT('',#576);
#309=VERTEX_POINT('',#579);
#310=VERTEX_POINT('',#582);
#311=VERTEX_POINT('',#605);
#312=VERTEX_POINT('',#608);
#313=EDGE_CURVE('',#290,#291,#344,.T.);
#314=EDGE_CURVE('',#291,#290,#213,.T.);
#315=EDGE_CURVE('',#292,#290,#345,.T.);
#316=EDGE_CURVE('',#291,#293,#346,.T.);
#317=EDGE_CURVE('',#293,#292,#214,.T.);
#318=EDGE_CURVE('',#293,#294,#347,.T.);
#319=EDGE_CURVE('',#294,#295,#215,.T.);
#320=EDGE_CURVE('',#295,#292,#348,.T.);
#321=EDGE_CURVE('',#296,#297,#349,.T.);
#322=EDGE_CURVE('',#297,#296,#216,.T.);
#323=EDGE_CURVE('',#298,#296,#350,.T.);
#324=EDGE_CURVE('',#297,#299,#351,.T.);
#325=EDGE_CURVE('',#299,#298,#217,.T.);
#326=EDGE_CURVE('',#300,#298,#352,.T.);
#327=EDGE_CURVE('',#299,#301,#353,.T.);
#328=EDGE_CURVE('',#301,#300,#218,.T.);
#329=EDGE_CURVE('',#302,#303,#354,.T.);
#330=EDGE_CURVE('',#301,#302,#355,.T.);
#331=EDGE_CURVE('',#303,#300,#356,.T.);
#332=EDGE_CURVE('',#302,#304,#219,.T.);
#333=EDGE_CURVE('',#305,#303,#220,.T.);
#334=EDGE_CURVE('',#306,#305,#357,.T.);
#335=EDGE_CURVE('',#304,#306,#221,.T.);
#336=EDGE_CURVE('',#294,#305,#358,.T.);
#337=EDGE_CURVE('',#306,#295,#359,.T.);
#338=EDGE_CURVE('',#307,#307,#222,.T.);
#339=EDGE_CURVE('',#308,#308,#223,.T.);
#340=EDGE_CURVE('',#309,#309,#224,.T.);
#341=EDGE_CURVE('',#310,#310,#225,.T.);
#342=EDGE_CURVE('',#311,#311,#226,.T.);
#343=EDGE_CURVE('',#312,#312,#227,.T.);
#344=LINE('',#521,#360);
#345=LINE('',#526,#361);
#346=LINE('',#528,#362);
#347=LINE('',#532,#363);
#348=LINE('',#536,#364);
#349=LINE('',#538,#365);
#350=LINE('',#543,#366);
#351=LINE('',#545,#367);
#352=LINE('',#549,#368);
#353=LINE('',#551,#369);
#354=LINE('',#555,#370);
#355=LINE('',#558,#371);
#356=LINE('',#559,#372);
#357=LINE('',#565,#373);
#358=LINE('',#569,#374);
#359=LINE('',#570,#375);
#360=VECTOR('',#442,1.);
#361=VECTOR('',#447,1.);
#362=VECTOR('',#448,1.);
#363=VECTOR('',#453,1.);
#364=VECTOR('',#456,1.);
#365=VECTOR('',#459,1.);
#366=VECTOR('',#464,1.);
#367=VECTOR('',#465,1.);
#368=VECTOR('',#470,1.);
#369=VECTOR('',#471,1.);
#370=VECTOR('',#476,1.);
#371=VECTOR('',#477,1.);
#372=VECTOR('',#478,1.);
#373=VECTOR('',#485,1.);
#374=VECTOR('',#490,1.);
#375=VECTOR('',#491,1.);
#376=INVISIBILITY((#377,#380,#378,#381));
#377=PRESENTATION_LAYER_ASSIGNMENT('112','Layer 112',(#519));
#378=PRESENTATION_LAYER_ASSIGNMENT('111','Layer 111',(#520));
#379=PRESENTATION_LAYER_ASSIGNMENT('1','Layer 1',(#135));
#380=STYLED_ITEM('',(#383),#519);
#381=STYLED_ITEM('',(#384),#520);
#382=STYLED_ITEM('',(#385),#135);
#383=PRESENTATION_STYLE_ASSIGNMENT((#402));
#384=PRESENTATION_STYLE_ASSIGNMENT((#403));
#385=PRESENTATION_STYLE_ASSIGNMENT((#50));
#386=PRESENTATION_STYLE_ASSIGNMENT((#51));
#387=PRESENTATION_STYLE_ASSIGNMENT((#52));
#388=PRESENTATION_STYLE_ASSIGNMENT((#53));
#389=PRESENTATION_STYLE_ASSIGNMENT((#54));
#390=PRESENTATION_STYLE_ASSIGNMENT((#55));
#391=PRESENTATION_STYLE_ASSIGNMENT((#56));
#392=PRESENTATION_STYLE_ASSIGNMENT((#57));
#393=PRESENTATION_STYLE_ASSIGNMENT((#58));
#394=PRESENTATION_STYLE_ASSIGNMENT((#59));
#395=PRESENTATION_STYLE_ASSIGNMENT((#60));
#396=PRESENTATION_STYLE_ASSIGNMENT((#61));
#397=PRESENTATION_STYLE_ASSIGNMENT((#62));
#398=PRESENTATION_STYLE_ASSIGNMENT((#63));
#399=PRESENTATION_STYLE_ASSIGNMENT((#64));
#400=PRESENTATION_STYLE_ASSIGNMENT((#65));
#401=PRESENTATION_STYLE_ASSIGNMENT((#66));
#402=POINT_STYLE('',#404,POSITIVE_LENGTH_MEASURE(3.),#406);
#403=POINT_STYLE('',#405,POSITIVE_LENGTH_MEASURE(3.),#406);
#404=PRE_DEFINED_POINT_MARKER_SYMBOL('plus');
#405=PRE_DEFINED_POINT_MARKER_SYMBOL('plus');
#406=COLOUR_RGB('Medium Maroon',0.6,0.4,0.4);
#407=COLOUR_RGB('LIGHT_BLUE',0.,0.65999847409781,1.);
#408=COLOUR_RGB('Silver Gray',0.6,0.6,0.6);
#409=AXIS2_PLACEMENT_3D('',#518,#440,#441);
#410=AXIS2_PLACEMENT_3D('',#524,#443,#444);
#411=AXIS2_PLACEMENT_3D('',#525,#445,#446);
#412=AXIS2_PLACEMENT_3D('',#530,#449,#450);
#413=AXIS2_PLACEMENT_3D('',#531,#451,#452);
#414=AXIS2_PLACEMENT_3D('',#534,#454,#455);
#415=AXIS2_PLACEMENT_3D('',#537,#457,#458);
#416=AXIS2_PLACEMENT_3D('',#541,#460,#461);
#417=AXIS2_PLACEMENT_3D('',#542,#462,#463);
#418=AXIS2_PLACEMENT_3D('',#547,#466,#467);
#419=AXIS2_PLACEMENT_3D('',#548,#468,#469);
#420=AXIS2_PLACEMENT_3D('',#553,#472,#473);
#421=AXIS2_PLACEMENT_3D('',#554,#474,#475);
#422=AXIS2_PLACEMENT_3D('',#560,#479,#480);
#423=AXIS2_PLACEMENT_3D('',#561,#481,#482);
#424=AXIS2_PLACEMENT_3D('',#563,#483,#484);
#425=AXIS2_PLACEMENT_3D('',#567,#486,#487);
#426=AXIS2_PLACEMENT_3D('',#568,#488,#489);
#427=AXIS2_PLACEMENT_3D('',#571,#492,#493);
#428=AXIS2_PLACEMENT_3D('',#572,#494,#495);
#429=AXIS2_PLACEMENT_3D('',#574,#496,#497);
#430=AXIS2_PLACEMENT_3D('',#575,#498,#499);
#431=AXIS2_PLACEMENT_3D('',#577,#500,#501);
#432=AXIS2_PLACEMENT_3D('',#578,#502,#503);
#433=AXIS2_PLACEMENT_3D('',#580,#504,#505);
#434=AXIS2_PLACEMENT_3D('',#581,#506,#507);
#435=AXIS2_PLACEMENT_3D('',#604,#508,#509);
#436=AXIS2_PLACEMENT_3D('',#606,#510,#511);
#437=AXIS2_PLACEMENT_3D('',#607,#512,#513);
#438=AXIS2_PLACEMENT_3D('',#609,#514,#515);
#439=AXIS2_PLACEMENT_3D('',#610,#516,#517);
#440=DIRECTION('',(0.,0.,1.));
#441=DIRECTION('',(1.,0.,0.));
#442=DIRECTION('',(0.,1.,0.));
#443=DIRECTION('',(4.23804570121906E-16,-1.47995206750275E-16,1.));
#444=DIRECTION('',(-0.183333333333008,0.983050806870636,0.));
#445=DIRECTION('',(0.,0.,1.));
#446=DIRECTION('',(0.,1.,0.));
#447=DIRECTION('',(0.,-1.54886024640786E-16,-1.));
#448=DIRECTION('',(0.,4.64658073922358E-16,1.));
#449=DIRECTION('',(0.,0.,1.));
#450=DIRECTION('',(1.,0.,0.));
#451=DIRECTION('',(-6.19544098563144E-16,3.06103296380235E-16,1.));
#452=DIRECTION('',(-8.29746560575638E-17,-1.,5.78241158658936E-16));
#453=DIRECTION('',(0.,1.,2.85189214343033E-15));
#454=DIRECTION('',(-1.44095641224755E-15,3.28933683033123E-15,1.));
#455=DIRECTION('',(-0.157142857142779,0.987575881868833,-3.46944695195361E-15));
#456=DIRECTION('',(0.,1.,2.85189214343049E-15));
#457=DIRECTION('',(0.,0.,1.));
#458=DIRECTION('',(0.,1.,0.));
#459=DIRECTION('',(-1.28671125207973E-16,-1.,0.));
#460=DIRECTION('',(2.70713942658064E-16,3.69393430075274E-16,1.));
#461=DIRECTION('',(0.183333333333334,-0.983050806870575,0.));
#462=DIRECTION('',(0.,0.,1.));
#463=DIRECTION('',(0.,1.,0.));
#464=DIRECTION('',(0.,-1.54886024640786E-16,-1.));
#465=DIRECTION('',(0.,4.64658073922358E-16,1.));
#466=DIRECTION('',(0.,0.,1.));
#467=DIRECTION('',(1.,0.,0.));
#468=DIRECTION('',(-6.19544098563144E-16,3.06103296380235E-16,1.));
#469=DIRECTION('',(-8.29746560575638E-17,-1.,5.78241158658936E-16));
#470=DIRECTION('',(-3.56486517928793E-16,-1.,-2.85189214343035E-15));
#471=DIRECTION('',(-3.56486517928811E-16,-1.,-2.85189214343049E-15));
#472=DIRECTION('',(3.27793742319249E-17,1.00798719866693E-15,1.));
#473=DIRECTION('',(0.157142857142857,-0.987575881868821,9.91270557701032E-16));
#474=DIRECTION('',(0.,0.,1.));
#475=DIRECTION('',(0.,1.,0.));
#476=DIRECTION('',(1.25467644550161E-16,1.,0.));
#477=DIRECTION('',(0.,-5.78241158658936E-16,-1.));
#478=DIRECTION('',(2.4093381610789E-17,5.78241158658937E-16,1.));
#479=DIRECTION('',(1.,-1.21642362898932E-16,0.));
#480=DIRECTION('',(-1.21647483752874E-16,-1.,0.));
#481=DIRECTION('',(-1.23695841678732E-15,8.70244081159547E-15,-1.));
#482=DIRECTION('',(0.157142857142858,-0.987575881868821,-8.92143501930922E-15));
#483=DIRECTION('',(5.42611272388864E-16,-3.36085808431954E-15,-1.));
#484=DIRECTION('',(-0.157142857142859,0.987575881868821,-3.46944695195364E-15));
#485=DIRECTION('',(0.,1.,0.));
#486=DIRECTION('',(1.16748891165538E-15,-1.40693661667215E-14,-1.));
#487=DIRECTION('',(1.68059666575707E-15,-1.,1.43734230866656E-14));
#488=DIRECTION('',(0.,0.,-1.));
#489=DIRECTION('',(0.,1.,0.));
#490=DIRECTION('',(0.,-4.81867632215781E-16,-1.));
#491=DIRECTION('',(-2.4093381610789E-17,6.74614685102092E-16,1.));
#492=DIRECTION('',(-1.,0.,0.));
#493=DIRECTION('',(0.,1.,0.));
#494=DIRECTION('',(0.,6.22481831697433E-16,1.));
#495=DIRECTION('',(0.,-1.,4.95635278850516E-16));
#496=DIRECTION('',(1.34639485472056E-16,5.83500631435009E-16,1.));
#497=DIRECTION('',(-1.03746971949572E-16,-1.,5.83500631435008E-16));
#498=DIRECTION('',(0.,0.,1.));
#499=DIRECTION('',(-1.,0.,0.));
#500=DIRECTION('',(0.,0.,-1.));
#501=DIRECTION('',(0.,1.,0.));
#502=DIRECTION('',(1.07024139849934E-15,-6.17904159521477E-16,1.));
#503=DIRECTION('',(0.,-1.,0.));
#504=DIRECTION('',(5.35120699249671E-16,3.08952079760739E-16,1.));
#505=DIRECTION('',(1.98086323311592E-16,-1.,3.61400724161834E-16));
#506=DIRECTION('',(0.,0.,1.));
#507=DIRECTION('',(0.,-1.,0.));
#508=DIRECTION('',(0.,0.,1.));
#509=DIRECTION('',(-6.42490176294772E-17,-1.,0.));
#510=DIRECTION('',(0.,0.,1.));
#511=DIRECTION('',(6.42490176294771E-17,-1.,0.));
#512=DIRECTION('',(0.,0.,1.));
#513=DIRECTION('',(0.,-1.,0.));
#514=DIRECTION('',(0.,0.,1.));
#515=DIRECTION('',(0.,-1.,3.46598097098269E-18));
#516=DIRECTION('',(0.,0.,-1.));
#517=DIRECTION('',(0.,1.,0.));
#518=CARTESIAN_POINT('',(0.,0.,0.));
#519=CARTESIAN_POINT('',(0.,0.,0.));
#520=CARTESIAN_POINT('',(0.,3.5527136788005E-15,3.14999999999998));
#521=CARTESIAN_POINT('',(-0.549999999999999,-2.94915242061172,12.3));
#522=CARTESIAN_POINT('',(-0.549999999999999,-2.94915242061172,12.3));
#523=CARTESIAN_POINT('',(-0.549999999999999,2.94915242061173,12.3));
#524=CARTESIAN_POINT('',(-2.00484075950675E-16,3.15773882736403E-15,12.3));
#525=CARTESIAN_POINT('',(3.3,-3.29999999999999,12.3));
#526=CARTESIAN_POINT('',(-0.549999999999999,-2.94915242061172,15.1));
#527=CARTESIAN_POINT('',(-0.550000000000001,-2.94915242061172,15.3));
#528=CARTESIAN_POINT('',(-0.549999999999999,2.94915242061173,12.3));
#529=CARTESIAN_POINT('',(-0.549999999999999,2.94915242061173,15.3));
#530=CARTESIAN_POINT('',(-7.54689274906114E-17,5.37709132348734E-15,15.3));
#531=CARTESIAN_POINT('',(1.78316336819882E-15,4.45878143434664E-15,12.3));
#532=CARTESIAN_POINT('',(-0.549999999999999,3.15238005322963,15.3));
#533=CARTESIAN_POINT('',(-0.549999999999999,3.4565155865409,15.3));
#534=CARTESIAN_POINT('',(3.16054265875439E-15,1.85669622038143E-15,15.3));
#535=CARTESIAN_POINT('',(-0.549999999999999,-3.45651558654087,15.3));
#536=CARTESIAN_POINT('',(-0.549999999999999,-3.45651558654087,15.3));
#537=CARTESIAN_POINT('',(3.85,-3.84999999999999,15.3));
#538=CARTESIAN_POINT('',(0.550000000000001,2.94915242061173,12.3));
#539=CARTESIAN_POINT('',(0.550000000000001,2.94915242061173,12.3));
#540=CARTESIAN_POINT('',(0.55,-2.94915242061172,12.3));
#541=CARTESIAN_POINT('',(-9.20638587021248E-17,5.32614317233504E-15,12.3));
#542=CARTESIAN_POINT('',(3.3,-3.29999999999999,12.3));
#543=CARTESIAN_POINT('',(0.550000000000001,2.94915242061173,15.1));
#544=CARTESIAN_POINT('',(0.549999999999999,2.94915242061173,15.3));
#545=CARTESIAN_POINT('',(0.55,-2.94915242061172,12.3));
#546=CARTESIAN_POINT('',(0.55,-2.94915242061172,15.3));
#547=CARTESIAN_POINT('',(-7.54689274906114E-17,5.37709132348734E-15,15.3));
#548=CARTESIAN_POINT('',(1.78316336819882E-15,4.45878143434664E-15,12.3));
#549=CARTESIAN_POINT('',(0.550000000000001,3.4565155865409,15.3));
#550=CARTESIAN_POINT('',(0.550000000000001,3.4565155865409,15.3));
#551=CARTESIAN_POINT('',(0.55,-3.15238005322961,15.3));
#552=CARTESIAN_POINT('',(0.55,-3.45651558654087,15.3));
#553=CARTESIAN_POINT('',(1.24776575794976E-16,7.49454751730605E-15,15.3));
#554=CARTESIAN_POINT('',(3.85,-3.84999999999999,15.3));
#555=CARTESIAN_POINT('',(0.55,-3.45651558654087,10.8));
#556=CARTESIAN_POINT('',(0.55,-3.45651558654087,10.8));
#557=CARTESIAN_POINT('',(0.550000000000001,3.45651558654088,10.8));
#558=CARTESIAN_POINT('',(0.55,-3.45651558654087,15.3));
#559=CARTESIAN_POINT('',(0.550000000000001,3.45651558654088,10.8));
#560=CARTESIAN_POINT('',(0.550000000000001,4.4565155865409,15.3));
#561=CARTESIAN_POINT('',(-5.8383353728753E-15,3.17806761809813E-14,10.8));
#562=CARTESIAN_POINT('',(1.0909920412747E-15,-3.5,10.8));
#563=CARTESIAN_POINT('',(4.35316504848844E-15,3.26480379189698E-14,10.8));
#564=CARTESIAN_POINT('',(-0.549999999999999,3.45651558654088,10.8));
#565=CARTESIAN_POINT('',(-0.549999999999999,-3.45651558654087,10.8));
#566=CARTESIAN_POINT('',(-0.549999999999999,-3.45651558654087,10.8));
#567=CARTESIAN_POINT('',(-4.79109628887478E-15,-1.56870501831496E-13,10.8));
#568=CARTESIAN_POINT('',(-0.579999992623925,-4.5,10.8));
#569=CARTESIAN_POINT('',(-0.549999999999999,3.45651558654088,15.3));
#570=CARTESIAN_POINT('',(-0.549999999999999,-3.45651558654087,10.8));
#571=CARTESIAN_POINT('',(-0.549999999999999,-4.45651558654087,15.3));
#572=CARTESIAN_POINT('',(6.66877662037728E-16,1.21972744404619E-16,1.21430643318376E-14));
#573=CARTESIAN_POINT('',(6.66877662037728E-16,-3.5,1.38777878078145E-14));
#574=CARTESIAN_POINT('',(1.73333694994851E-30,0.,1.21430643318376E-14));
#575=CARTESIAN_POINT('',(1.45707202182713E-15,-2.10416771907924E-15,0.));
#576=CARTESIAN_POINT('',(-1.2,-2.10416771907924E-15,0.));
#577=CARTESIAN_POINT('',(-3.85,-3.85,0.));
#578=CARTESIAN_POINT('',(6.66877662037728E-16,-3.7811550765432E-15,-3.54174243008948));
#579=CARTESIAN_POINT('',(6.66877662037728E-16,-1.20000000000001,-3.54174243008948));
#580=CARTESIAN_POINT('',(-4.38187663924586E-16,-3.19839640883224E-15,-3.54174243008948));
#581=CARTESIAN_POINT('',(6.66877662037728E-16,-4.4316763800345E-15,-4.00000000002474));
#582=CARTESIAN_POINT('',(6.66877662037728E-16,-1.50000000000001,-4.00000000002474));
#583=CARTESIAN_POINT('',(6.66877662037728E-16,-1.50000000000001,-4.00000000002474));
#584=CARTESIAN_POINT('',(6.66877662037728E-16,-1.19999999971314,-3.86906926575795));
#585=CARTESIAN_POINT('',(6.66877662037728E-16,-1.20000000000001,-3.54174243009096));
#586=CARTESIAN_POINT('',(2.59807621135332,-1.50000000000001,-4.00000000002474));
#587=CARTESIAN_POINT('',(2.07846096858578,-1.19999999971314,-3.86906926575795));
#588=CARTESIAN_POINT('',(2.07846096908266,-1.20000000000001,-3.54174243009096));
#589=CARTESIAN_POINT('',(1.29903810567666,0.749999999999997,-4.00000000002474));
#590=CARTESIAN_POINT('',(1.03923048429289,0.599999999856561,-3.86906926575795));
#591=CARTESIAN_POINT('',(1.03923048454133,0.599999999999997,-3.54174243009096));
#592=CARTESIAN_POINT('',(1.75107983452323E-15,3.,-4.00000000002475));
#593=CARTESIAN_POINT('',(1.53423939981878E-15,2.39999999942626,-3.86906926575795));
#594=CARTESIAN_POINT('',(1.53423940002613E-15,2.4,-3.54174243009096));
#595=CARTESIAN_POINT('',(-1.29903810567666,0.749999999999998,-4.00000000002474));
#596=CARTESIAN_POINT('',(-1.03923048429289,0.599999999856562,-3.86906926575795));
#597=CARTESIAN_POINT('',(-1.03923048454133,0.599999999999998,-3.54174243009096));
#598=CARTESIAN_POINT('',(-2.59807621135332,-1.50000000000001,-4.00000000002474));
#599=CARTESIAN_POINT('',(-2.07846096858578,-1.19999999971313,-3.86906926575795));
#600=CARTESIAN_POINT('',(-2.07846096908266,-1.2,-3.54174243009096));
#601=CARTESIAN_POINT('',(6.66877662037728E-16,-1.50000000000001,-4.00000000002474));
#602=CARTESIAN_POINT('',(6.66877662037728E-16,-1.19999999971314,-3.86906926575795));
#603=CARTESIAN_POINT('',(6.66877662037728E-16,-1.20000000000001,-3.54174243009096));
#604=CARTESIAN_POINT('',(7.63251188481944E-16,-6.60008072500551E-15,-8.50000000000001));
#605=CARTESIAN_POINT('',(6.66877662037728E-16,-1.50000000000001,-8.50000000000001));
#606=CARTESIAN_POINT('',(5.70504135593513E-16,-5.7327189870171E-15,-8.50000000000001));
#607=CARTESIAN_POINT('',(6.66877662037728E-16,-6.27482007325986E-15,-9.00000000000001));
#608=CARTESIAN_POINT('',(6.66877662037728E-16,-1.00000000000002,-9.00000000000001));
#609=CARTESIAN_POINT('',(6.66877662037728E-16,-6.38324029050841E-15,-9.00000000000001));
#610=CARTESIAN_POINT('',(-1.10000000000001,-1.10000000000002,-9.00000000000002));
#611=MECHANICAL_DESIGN_GEOMETRIC_PRESENTATION_REPRESENTATION('',(#380,#381,
#382,#34,#35,#36,#37,#38,#39,#40,#41,#42,#43,#44,#45,#46,#47,#48,#49),#612);
#612=(
GEOMETRIC_REPRESENTATION_CONTEXT(3)
GLOBAL_UNCERTAINTY_ASSIGNED_CONTEXT((#613))
GLOBAL_UNIT_ASSIGNED_CONTEXT((#619,#615,#614))
REPRESENTATION_CONTEXT('100101607ugm000_b','TOP_LEVEL_ASSEMBLY_PART')
);
#613=UNCERTAINTY_MEASURE_WITH_UNIT(LENGTH_MEASURE(2.E-5),#619,
'DISTANCE_ACCURACY_VALUE','Maximum Tolerance applied to model');
#614=(
NAMED_UNIT(*)
SI_UNIT($,.STERADIAN.)
SOLID_ANGLE_UNIT()
);
#615=(
CONVERSION_BASED_UNIT('DEGREE',#617)
NAMED_UNIT(#616)
PLANE_ANGLE_UNIT()
);
#616=DIMENSIONAL_EXPONENTS(0.,0.,0.,0.,0.,0.,0.);
#617=PLANE_ANGLE_MEASURE_WITH_UNIT(PLANE_ANGLE_MEASURE(0.0174532925),#618);
#618=(
NAMED_UNIT(*)
PLANE_ANGLE_UNIT()
SI_UNIT($,.RADIAN.)
);
#619=(
LENGTH_UNIT()
NAMED_UNIT(*)
SI_UNIT(.MILLI.,.METRE.)
);
ENDSEC;
END-ISO-10303-21;
