ISO-10303-21;
HEADER;
/* Generated by software containing ST-Developer
 * from STEP Tools, Inc. (www.steptools.com) 
 */
/* OPTION: using custom schema-name function */

FILE_DESCRIPTION(
/* description */ (''),
/* implementation_level */ '2;1');

FILE_NAME(
/* name */ '100860998ugm000_a.stp',
/* time_stamp */ '2019-10-29T06:52:00+01:00',
/* author */ (''),
/* organization */ (''),
/* preprocessor_version */ 'ST-DEVELOPER v16.7',
/* originating_system */ 'SIEMENS PLM Software NX 12.0',
/* authorisation */ '');

FILE_SCHEMA (('AUTOMOTIVE_DESIGN { 1 0 10303 214 3 1 1 1 }'));
ENDSEC;

DATA;
#10=GEOMETRICALLY_BOUNDED_WIREFRAME_SHAPE_REPRESENTATION(
'100860998ugm000_a-None',(#33),#680);
#11=PROPERTY_DEFINITION_REPRESENTATION(#15,#13);
#12=PROPERTY_DEFINITION_REPRESENTATION(#16,#14);
#13=REPRESENTATION('',(#17),#680);
#14=REPRESENTATION('',(#18),#680);
#15=PROPERTY_DEFINITION('pmi validation property','',#23);
#16=PROPERTY_DEFINITION('pmi validation property','',#23);
#17=VALUE_REPRESENTATION_ITEM('number of annotations',COUNT_MEASURE(0.));
#18=VALUE_REPRESENTATION_ITEM('number of views',COUNT_MEASURE(0.));
#19=SHAPE_REPRESENTATION_RELATIONSHIP('None',
'relationship between 100860998ugm000_a-None and 100860998ugm000_a-Non
e',#32,#21);
#20=SHAPE_REPRESENTATION_RELATIONSHIP('None',
'relationship between 100860998ugm000_a-None and 100860998ugm000_a-Non
e',#32,#10);
#21=ADVANCED_BREP_SHAPE_REPRESENTATION('100860998ugm000_a-None',(#153),
#680);
#22=SHAPE_DEFINITION_REPRESENTATION(#23,#32);
#23=PRODUCT_DEFINITION_SHAPE('','',#24);
#24=PRODUCT_DEFINITION(' ','',#26,#25);
#25=PRODUCT_DEFINITION_CONTEXT('part definition',#31,'design');
#26=PRODUCT_DEFINITION_FORMATION_WITH_SPECIFIED_SOURCE(' ',' ',#28,
 .NOT_KNOWN.);
#27=PRODUCT_RELATED_PRODUCT_CATEGORY('part','',(#28));
#28=PRODUCT('100860998ugm000_a','100860998ugm000_a',' ',(#29));
#29=PRODUCT_CONTEXT(' ',#31,'mechanical');
#30=APPLICATION_PROTOCOL_DEFINITION('international standard',
'automotive_design',2010,#31);
#31=APPLICATION_CONTEXT(
'core data for automotive mechanical design processes');
#32=SHAPE_REPRESENTATION('100860998ugm000_a-None',(#452),#680);
#33=GEOMETRIC_CURVE_SET('None',(#576));
#34=OVER_RIDING_STYLED_ITEM('',(#428),#188,#425);
#35=OVER_RIDING_STYLED_ITEM('',(#429),#189,#425);
#36=OVER_RIDING_STYLED_ITEM('',(#430),#190,#425);
#37=OVER_RIDING_STYLED_ITEM('',(#431),#191,#425);
#38=OVER_RIDING_STYLED_ITEM('',(#432),#192,#425);
#39=OVER_RIDING_STYLED_ITEM('',(#433),#193,#425);
#40=OVER_RIDING_STYLED_ITEM('',(#434),#194,#425);
#41=OVER_RIDING_STYLED_ITEM('',(#435),#195,#425);
#42=OVER_RIDING_STYLED_ITEM('',(#436),#196,#425);
#43=OVER_RIDING_STYLED_ITEM('',(#437),#197,#425);
#44=OVER_RIDING_STYLED_ITEM('',(#438),#198,#425);
#45=OVER_RIDING_STYLED_ITEM('',(#439),#199,#425);
#46=OVER_RIDING_STYLED_ITEM('',(#440),#200,#425);
#47=OVER_RIDING_STYLED_ITEM('',(#441),#201,#425);
#48=OVER_RIDING_STYLED_ITEM('',(#442),#202,#425);
#49=OVER_RIDING_STYLED_ITEM('',(#443),#203,#425);
#50=OVER_RIDING_STYLED_ITEM('',(#444),#204,#425);
#51=OVER_RIDING_STYLED_ITEM('',(#445),#205,#425);
#52=OVER_RIDING_STYLED_ITEM('',(#446),#206,#425);
#53=SURFACE_STYLE_USAGE(.BOTH.,#73);
#54=SURFACE_STYLE_USAGE(.BOTH.,#74);
#55=SURFACE_STYLE_USAGE(.BOTH.,#75);
#56=SURFACE_STYLE_USAGE(.BOTH.,#76);
#57=SURFACE_STYLE_USAGE(.BOTH.,#77);
#58=SURFACE_STYLE_USAGE(.BOTH.,#78);
#59=SURFACE_STYLE_USAGE(.BOTH.,#79);
#60=SURFACE_STYLE_USAGE(.BOTH.,#80);
#61=SURFACE_STYLE_USAGE(.BOTH.,#81);
#62=SURFACE_STYLE_USAGE(.BOTH.,#82);
#63=SURFACE_STYLE_USAGE(.BOTH.,#83);
#64=SURFACE_STYLE_USAGE(.BOTH.,#84);
#65=SURFACE_STYLE_USAGE(.BOTH.,#85);
#66=SURFACE_STYLE_USAGE(.BOTH.,#86);
#67=SURFACE_STYLE_USAGE(.BOTH.,#87);
#68=SURFACE_STYLE_USAGE(.BOTH.,#88);
#69=SURFACE_STYLE_USAGE(.BOTH.,#89);
#70=SURFACE_STYLE_USAGE(.BOTH.,#90);
#71=SURFACE_STYLE_USAGE(.BOTH.,#91);
#72=SURFACE_STYLE_USAGE(.BOTH.,#92);
#73=SURFACE_SIDE_STYLE('',(#93));
#74=SURFACE_SIDE_STYLE('',(#94));
#75=SURFACE_SIDE_STYLE('',(#95));
#76=SURFACE_SIDE_STYLE('',(#96));
#77=SURFACE_SIDE_STYLE('',(#97));
#78=SURFACE_SIDE_STYLE('',(#98));
#79=SURFACE_SIDE_STYLE('',(#99));
#80=SURFACE_SIDE_STYLE('',(#100));
#81=SURFACE_SIDE_STYLE('',(#101));
#82=SURFACE_SIDE_STYLE('',(#102));
#83=SURFACE_SIDE_STYLE('',(#103));
#84=SURFACE_SIDE_STYLE('',(#104));
#85=SURFACE_SIDE_STYLE('',(#105));
#86=SURFACE_SIDE_STYLE('',(#106));
#87=SURFACE_SIDE_STYLE('',(#107));
#88=SURFACE_SIDE_STYLE('',(#108));
#89=SURFACE_SIDE_STYLE('',(#109));
#90=SURFACE_SIDE_STYLE('',(#110));
#91=SURFACE_SIDE_STYLE('',(#111));
#92=SURFACE_SIDE_STYLE('',(#112));
#93=SURFACE_STYLE_FILL_AREA(#113);
#94=SURFACE_STYLE_FILL_AREA(#114);
#95=SURFACE_STYLE_FILL_AREA(#115);
#96=SURFACE_STYLE_FILL_AREA(#116);
#97=SURFACE_STYLE_FILL_AREA(#117);
#98=SURFACE_STYLE_FILL_AREA(#118);
#99=SURFACE_STYLE_FILL_AREA(#119);
#100=SURFACE_STYLE_FILL_AREA(#120);
#101=SURFACE_STYLE_FILL_AREA(#121);
#102=SURFACE_STYLE_FILL_AREA(#122);
#103=SURFACE_STYLE_FILL_AREA(#123);
#104=SURFACE_STYLE_FILL_AREA(#124);
#105=SURFACE_STYLE_FILL_AREA(#125);
#106=SURFACE_STYLE_FILL_AREA(#126);
#107=SURFACE_STYLE_FILL_AREA(#127);
#108=SURFACE_STYLE_FILL_AREA(#128);
#109=SURFACE_STYLE_FILL_AREA(#129);
#110=SURFACE_STYLE_FILL_AREA(#130);
#111=SURFACE_STYLE_FILL_AREA(#131);
#112=SURFACE_STYLE_FILL_AREA(#132);
#113=FILL_AREA_STYLE('',(#133));
#114=FILL_AREA_STYLE('',(#134));
#115=FILL_AREA_STYLE('',(#135));
#116=FILL_AREA_STYLE('',(#136));
#117=FILL_AREA_STYLE('',(#137));
#118=FILL_AREA_STYLE('',(#138));
#119=FILL_AREA_STYLE('',(#139));
#120=FILL_AREA_STYLE('',(#140));
#121=FILL_AREA_STYLE('',(#141));
#122=FILL_AREA_STYLE('',(#142));
#123=FILL_AREA_STYLE('',(#143));
#124=FILL_AREA_STYLE('',(#144));
#125=FILL_AREA_STYLE('',(#145));
#126=FILL_AREA_STYLE('',(#146));
#127=FILL_AREA_STYLE('',(#147));
#128=FILL_AREA_STYLE('',(#148));
#129=FILL_AREA_STYLE('',(#149));
#130=FILL_AREA_STYLE('',(#150));
#131=FILL_AREA_STYLE('',(#151));
#132=FILL_AREA_STYLE('',(#152));
#133=FILL_AREA_STYLE_COLOUR('',#450);
#134=FILL_AREA_STYLE_COLOUR('',#451);
#135=FILL_AREA_STYLE_COLOUR('',#451);
#136=FILL_AREA_STYLE_COLOUR('',#451);
#137=FILL_AREA_STYLE_COLOUR('',#451);
#138=FILL_AREA_STYLE_COLOUR('',#451);
#139=FILL_AREA_STYLE_COLOUR('',#451);
#140=FILL_AREA_STYLE_COLOUR('',#451);
#141=FILL_AREA_STYLE_COLOUR('',#451);
#142=FILL_AREA_STYLE_COLOUR('',#451);
#143=FILL_AREA_STYLE_COLOUR('',#451);
#144=FILL_AREA_STYLE_COLOUR('',#451);
#145=FILL_AREA_STYLE_COLOUR('',#451);
#146=FILL_AREA_STYLE_COLOUR('',#451);
#147=FILL_AREA_STYLE_COLOUR('',#451);
#148=FILL_AREA_STYLE_COLOUR('',#451);
#149=FILL_AREA_STYLE_COLOUR('',#451);
#150=FILL_AREA_STYLE_COLOUR('',#451);
#151=FILL_AREA_STYLE_COLOUR('',#451);
#152=FILL_AREA_STYLE_COLOUR('',#451);
#153=MANIFOLD_SOLID_BREP('',#154);
#154=CLOSED_SHELL('',(#188,#189,#190,#191,#192,#193,#194,#195,#196,#197,
#198,#199,#200,#201,#202,#203,#204,#205,#206));
#155=B_SPLINE_CURVE_WITH_KNOTS('',3,(#610,#611,#612,#613,#614,#615,#616),
 .UNSPECIFIED.,.F.,.F.,(4,3,4),(0.,0.52295389202598,1.),.UNSPECIFIED.);
#156=B_SPLINE_CURVE_WITH_KNOTS('',3,(#620,#621,#622,#623,#624,#625,#626),
 .UNSPECIFIED.,.F.,.F.,(4,3,4),(0.,0.477046045451571,1.),.UNSPECIFIED.);
#157=B_SPLINE_CURVE_WITH_KNOTS('',3,(#627,#628,#629,#630,#631,#632,#633),
 .UNSPECIFIED.,.F.,.F.,(4,3,4),(0.,0.52295389202598,1.),.UNSPECIFIED.);
#158=B_SPLINE_CURVE_WITH_KNOTS('',3,(#637,#638,#639,#640,#641,#642,#643),
 .UNSPECIFIED.,.F.,.F.,(4,3,4),(0.,0.47704604545157,1.),.UNSPECIFIED.);
#159=CYLINDRICAL_SURFACE('',#461,2.125);
#160=CYLINDRICAL_SURFACE('',#469,3.25);
#161=CYLINDRICAL_SURFACE('',#475,1.17499999999999);
#162=CYLINDRICAL_SURFACE('',#479,1.5);
#163=CONICAL_SURFACE('',#457,6.35602752122876E-15,58.9999999999998);
#164=CONICAL_SURFACE('',#467,2.6,9.22988624372762);
#165=CONICAL_SURFACE('',#471,3.25,9.46232220802561);
#166=CONICAL_SURFACE('',#481,1.5,27.6459753637387);
#167=VERTEX_LOOP('',#350);
#168=FACE_BOUND('',#228,.T.);
#169=FACE_BOUND('',#167,.T.);
#170=FACE_BOUND('',#229,.T.);
#171=FACE_BOUND('',#230,.T.);
#172=FACE_BOUND('',#232,.T.);
#173=FACE_BOUND('',#233,.T.);
#174=FACE_BOUND('',#234,.T.);
#175=FACE_BOUND('',#235,.T.);
#176=FACE_BOUND('',#236,.T.);
#177=FACE_BOUND('',#237,.T.);
#178=FACE_BOUND('',#238,.T.);
#179=FACE_BOUND('',#239,.T.);
#180=FACE_BOUND('',#240,.T.);
#181=FACE_BOUND('',#241,.T.);
#182=FACE_BOUND('',#242,.T.);
#183=FACE_BOUND('',#243,.T.);
#184=FACE_BOUND('',#244,.T.);
#185=FACE_BOUND('',#245,.T.);
#186=FACE_BOUND('',#246,.T.);
#187=FACE_BOUND('',#247,.T.);
#188=ADVANCED_FACE('',(#218),#207,.T.);
#189=ADVANCED_FACE('',(#168,#169),#163,.F.);
#190=ADVANCED_FACE('',(#170,#171),#159,.F.);
#191=ADVANCED_FACE('',(#219),#208,.T.);
#192=ADVANCED_FACE('',(#172,#173),#164,.T.);
#193=ADVANCED_FACE('',(#174,#175),#160,.T.);
#194=ADVANCED_FACE('',(#176,#177),#165,.T.);
#195=ADVANCED_FACE('',(#178,#179),#209,.T.);
#196=ADVANCED_FACE('',(#180,#181),#161,.T.);
#197=ADVANCED_FACE('',(#182,#183),#210,.T.);
#198=ADVANCED_FACE('',(#184,#185),#162,.T.);
#199=ADVANCED_FACE('',(#186,#187),#166,.T.);
#200=ADVANCED_FACE('',(#220),#211,.T.);
#201=ADVANCED_FACE('',(#221),#212,.F.);
#202=ADVANCED_FACE('',(#222),#213,.F.);
#203=ADVANCED_FACE('',(#223),#214,.F.);
#204=ADVANCED_FACE('',(#224),#215,.F.);
#205=ADVANCED_FACE('',(#225),#216,.F.);
#206=ADVANCED_FACE('',(#226),#217,.F.);
#207=PLANE('',#455);
#208=PLANE('',#463);
#209=PLANE('',#473);
#210=PLANE('',#477);
#211=PLANE('',#482);
#212=PLANE('',#483);
#213=PLANE('',#484);
#214=PLANE('',#485);
#215=PLANE('',#486);
#216=PLANE('',#487);
#217=PLANE('',#488);
#218=FACE_OUTER_BOUND('',#227,.T.);
#219=FACE_OUTER_BOUND('',#231,.T.);
#220=FACE_OUTER_BOUND('',#248,.T.);
#221=FACE_OUTER_BOUND('',#249,.T.);
#222=FACE_OUTER_BOUND('',#250,.T.);
#223=FACE_OUTER_BOUND('',#251,.T.);
#224=FACE_OUTER_BOUND('',#252,.T.);
#225=FACE_OUTER_BOUND('',#253,.T.);
#226=FACE_OUTER_BOUND('',#254,.T.);
#227=EDGE_LOOP('',(#279,#280,#281,#282));
#228=EDGE_LOOP('',(#283));
#229=EDGE_LOOP('',(#284,#285,#286,#287,#288,#289,#290,#291));
#230=EDGE_LOOP('',(#292));
#231=EDGE_LOOP('',(#293,#294,#295,#296));
#232=EDGE_LOOP('',(#297,#298,#299,#300,#301,#302,#303,#304));
#233=EDGE_LOOP('',(#305));
#234=EDGE_LOOP('',(#306));
#235=EDGE_LOOP('',(#307));
#236=EDGE_LOOP('',(#308));
#237=EDGE_LOOP('',(#309));
#238=EDGE_LOOP('',(#310));
#239=EDGE_LOOP('',(#311));
#240=EDGE_LOOP('',(#312));
#241=EDGE_LOOP('',(#313));
#242=EDGE_LOOP('',(#314));
#243=EDGE_LOOP('',(#315));
#244=EDGE_LOOP('',(#316));
#245=EDGE_LOOP('',(#317));
#246=EDGE_LOOP('',(#318));
#247=EDGE_LOOP('',(#319));
#248=EDGE_LOOP('',(#320));
#249=EDGE_LOOP('',(#321,#322,#323,#324));
#250=EDGE_LOOP('',(#325,#326,#327,#328));
#251=EDGE_LOOP('',(#329,#330,#331,#332));
#252=EDGE_LOOP('',(#333,#334,#335,#336));
#253=EDGE_LOOP('',(#337,#338,#339,#340));
#254=EDGE_LOOP('',(#341,#342,#343,#344));
#255=LINE('',#580,#267);
#256=LINE('',#584,#268);
#257=LINE('',#590,#269);
#258=LINE('',#595,#270);
#259=LINE('',#599,#271);
#260=LINE('',#600,#272);
#261=LINE('',#604,#273);
#262=LINE('',#608,#274);
#263=LINE('',#669,#275);
#264=LINE('',#671,#276);
#265=LINE('',#674,#277);
#266=LINE('',#676,#278);
#267=VECTOR('',#493,1.);
#268=VECTOR('',#496,1.);
#269=VECTOR('',#503,1.);
#270=VECTOR('',#506,1.);
#271=VECTOR('',#509,1.);
#272=VECTOR('',#510,1.);
#273=VECTOR('',#515,1.);
#274=VECTOR('',#518,1.);
#275=VECTOR('',#559,1.);
#276=VECTOR('',#562,1.);
#277=VECTOR('',#567,1.);
#278=VECTOR('',#570,1.);
#279=ORIENTED_EDGE('',*,*,#371,.T.);
#280=ORIENTED_EDGE('',*,*,#372,.T.);
#281=ORIENTED_EDGE('',*,*,#373,.F.);
#282=ORIENTED_EDGE('',*,*,#374,.T.);
#283=ORIENTED_EDGE('',*,*,#375,.T.);
#284=ORIENTED_EDGE('',*,*,#376,.F.);
#285=ORIENTED_EDGE('',*,*,#377,.T.);
#286=ORIENTED_EDGE('',*,*,#378,.F.);
#287=ORIENTED_EDGE('',*,*,#379,.F.);
#288=ORIENTED_EDGE('',*,*,#380,.F.);
#289=ORIENTED_EDGE('',*,*,#373,.T.);
#290=ORIENTED_EDGE('',*,*,#381,.F.);
#291=ORIENTED_EDGE('',*,*,#382,.F.);
#292=ORIENTED_EDGE('',*,*,#375,.F.);
#293=ORIENTED_EDGE('',*,*,#383,.F.);
#294=ORIENTED_EDGE('',*,*,#384,.T.);
#295=ORIENTED_EDGE('',*,*,#385,.F.);
#296=ORIENTED_EDGE('',*,*,#377,.F.);
#297=ORIENTED_EDGE('',*,*,#386,.F.);
#298=ORIENTED_EDGE('',*,*,#387,.F.);
#299=ORIENTED_EDGE('',*,*,#388,.F.);
#300=ORIENTED_EDGE('',*,*,#371,.F.);
#301=ORIENTED_EDGE('',*,*,#389,.F.);
#302=ORIENTED_EDGE('',*,*,#390,.F.);
#303=ORIENTED_EDGE('',*,*,#391,.F.);
#304=ORIENTED_EDGE('',*,*,#384,.F.);
#305=ORIENTED_EDGE('',*,*,#392,.T.);
#306=ORIENTED_EDGE('',*,*,#393,.T.);
#307=ORIENTED_EDGE('',*,*,#392,.F.);
#308=ORIENTED_EDGE('',*,*,#394,.T.);
#309=ORIENTED_EDGE('',*,*,#393,.F.);
#310=ORIENTED_EDGE('',*,*,#395,.T.);
#311=ORIENTED_EDGE('',*,*,#394,.F.);
#312=ORIENTED_EDGE('',*,*,#396,.T.);
#313=ORIENTED_EDGE('',*,*,#395,.F.);
#314=ORIENTED_EDGE('',*,*,#397,.T.);
#315=ORIENTED_EDGE('',*,*,#396,.F.);
#316=ORIENTED_EDGE('',*,*,#398,.T.);
#317=ORIENTED_EDGE('',*,*,#397,.F.);
#318=ORIENTED_EDGE('',*,*,#399,.T.);
#319=ORIENTED_EDGE('',*,*,#398,.F.);
#320=ORIENTED_EDGE('',*,*,#399,.F.);
#321=ORIENTED_EDGE('',*,*,#380,.T.);
#322=ORIENTED_EDGE('',*,*,#400,.F.);
#323=ORIENTED_EDGE('',*,*,#389,.T.);
#324=ORIENTED_EDGE('',*,*,#374,.F.);
#325=ORIENTED_EDGE('',*,*,#379,.T.);
#326=ORIENTED_EDGE('',*,*,#401,.F.);
#327=ORIENTED_EDGE('',*,*,#390,.T.);
#328=ORIENTED_EDGE('',*,*,#400,.T.);
#329=ORIENTED_EDGE('',*,*,#378,.T.);
#330=ORIENTED_EDGE('',*,*,#385,.T.);
#331=ORIENTED_EDGE('',*,*,#391,.T.);
#332=ORIENTED_EDGE('',*,*,#401,.T.);
#333=ORIENTED_EDGE('',*,*,#381,.T.);
#334=ORIENTED_EDGE('',*,*,#372,.F.);
#335=ORIENTED_EDGE('',*,*,#388,.T.);
#336=ORIENTED_EDGE('',*,*,#402,.F.);
#337=ORIENTED_EDGE('',*,*,#376,.T.);
#338=ORIENTED_EDGE('',*,*,#403,.T.);
#339=ORIENTED_EDGE('',*,*,#386,.T.);
#340=ORIENTED_EDGE('',*,*,#383,.T.);
#341=ORIENTED_EDGE('',*,*,#382,.T.);
#342=ORIENTED_EDGE('',*,*,#402,.T.);
#343=ORIENTED_EDGE('',*,*,#387,.T.);
#344=ORIENTED_EDGE('',*,*,#403,.F.);
#345=VERTEX_POINT('',#578);
#346=VERTEX_POINT('',#579);
#347=VERTEX_POINT('',#581);
#348=VERTEX_POINT('',#583);
#349=VERTEX_POINT('',#587);
#350=VERTEX_POINT('',#588);
#351=VERTEX_POINT('',#591);
#352=VERTEX_POINT('',#592);
#353=VERTEX_POINT('',#594);
#354=VERTEX_POINT('',#596);
#355=VERTEX_POINT('',#598);
#356=VERTEX_POINT('',#601);
#357=VERTEX_POINT('',#605);
#358=VERTEX_POINT('',#607);
#359=VERTEX_POINT('',#617);
#360=VERTEX_POINT('',#619);
#361=VERTEX_POINT('',#634);
#362=VERTEX_POINT('',#636);
#363=VERTEX_POINT('',#645);
#364=VERTEX_POINT('',#648);
#365=VERTEX_POINT('',#651);
#366=VERTEX_POINT('',#654);
#367=VERTEX_POINT('',#657);
#368=VERTEX_POINT('',#660);
#369=VERTEX_POINT('',#663);
#370=VERTEX_POINT('',#666);
#371=EDGE_CURVE('',#345,#346,#404,.T.);
#372=EDGE_CURVE('',#346,#347,#255,.T.);
#373=EDGE_CURVE('',#348,#347,#405,.T.);
#374=EDGE_CURVE('',#348,#345,#256,.T.);
#375=EDGE_CURVE('',#349,#349,#406,.T.);
#376=EDGE_CURVE('',#351,#352,#257,.T.);
#377=EDGE_CURVE('',#351,#353,#407,.T.);
#378=EDGE_CURVE('',#354,#353,#258,.T.);
#379=EDGE_CURVE('',#355,#354,#408,.T.);
#380=EDGE_CURVE('',#348,#355,#259,.T.);
#381=EDGE_CURVE('',#356,#347,#260,.T.);
#382=EDGE_CURVE('',#352,#356,#409,.T.);
#383=EDGE_CURVE('',#357,#351,#261,.T.);
#384=EDGE_CURVE('',#357,#358,#410,.T.);
#385=EDGE_CURVE('',#353,#358,#262,.T.);
#386=EDGE_CURVE('',#359,#357,#155,.T.);
#387=EDGE_CURVE('',#360,#359,#411,.T.);
#388=EDGE_CURVE('',#346,#360,#156,.T.);
#389=EDGE_CURVE('',#361,#345,#157,.T.);
#390=EDGE_CURVE('',#362,#361,#412,.T.);
#391=EDGE_CURVE('',#358,#362,#158,.T.);
#392=EDGE_CURVE('',#363,#363,#413,.T.);
#393=EDGE_CURVE('',#364,#364,#414,.T.);
#394=EDGE_CURVE('',#365,#365,#415,.T.);
#395=EDGE_CURVE('',#366,#366,#416,.T.);
#396=EDGE_CURVE('',#367,#367,#417,.T.);
#397=EDGE_CURVE('',#368,#368,#418,.T.);
#398=EDGE_CURVE('',#369,#369,#419,.T.);
#399=EDGE_CURVE('',#370,#370,#420,.T.);
#400=EDGE_CURVE('',#361,#355,#263,.T.);
#401=EDGE_CURVE('',#362,#354,#264,.T.);
#402=EDGE_CURVE('',#356,#360,#265,.T.);
#403=EDGE_CURVE('',#352,#359,#266,.T.);
#404=CIRCLE('',#453,2.6);
#405=CIRCLE('',#454,2.125);
#406=CIRCLE('',#456,2.12499999999999);
#407=CIRCLE('',#458,2.125);
#408=CIRCLE('',#459,2.125);
#409=CIRCLE('',#460,2.125);
#410=CIRCLE('',#462,2.6);
#411=CIRCLE('',#464,2.86);
#412=CIRCLE('',#465,2.86);
#413=CIRCLE('',#466,3.25);
#414=CIRCLE('',#468,3.25);
#415=CIRCLE('',#470,2.25);
#416=CIRCLE('',#472,1.17499999999999);
#417=CIRCLE('',#474,1.17499999999999);
#418=CIRCLE('',#476,1.5);
#419=CIRCLE('',#478,1.5);
#420=CIRCLE('',#480,0.95);
#421=INVISIBILITY((#424));
#422=PRESENTATION_LAYER_ASSIGNMENT('111','Layer 111',(#576));
#423=PRESENTATION_LAYER_ASSIGNMENT('1','Layer 1',(#153));
#424=STYLED_ITEM('',(#426),#576);
#425=STYLED_ITEM('',(#427),#153);
#426=PRESENTATION_STYLE_ASSIGNMENT((#447));
#427=PRESENTATION_STYLE_ASSIGNMENT((#53));
#428=PRESENTATION_STYLE_ASSIGNMENT((#54));
#429=PRESENTATION_STYLE_ASSIGNMENT((#55));
#430=PRESENTATION_STYLE_ASSIGNMENT((#56));
#431=PRESENTATION_STYLE_ASSIGNMENT((#57));
#432=PRESENTATION_STYLE_ASSIGNMENT((#58));
#433=PRESENTATION_STYLE_ASSIGNMENT((#59));
#434=PRESENTATION_STYLE_ASSIGNMENT((#60));
#435=PRESENTATION_STYLE_ASSIGNMENT((#61));
#436=PRESENTATION_STYLE_ASSIGNMENT((#62));
#437=PRESENTATION_STYLE_ASSIGNMENT((#63));
#438=PRESENTATION_STYLE_ASSIGNMENT((#64));
#439=PRESENTATION_STYLE_ASSIGNMENT((#65));
#440=PRESENTATION_STYLE_ASSIGNMENT((#66));
#441=PRESENTATION_STYLE_ASSIGNMENT((#67));
#442=PRESENTATION_STYLE_ASSIGNMENT((#68));
#443=PRESENTATION_STYLE_ASSIGNMENT((#69));
#444=PRESENTATION_STYLE_ASSIGNMENT((#70));
#445=PRESENTATION_STYLE_ASSIGNMENT((#71));
#446=PRESENTATION_STYLE_ASSIGNMENT((#72));
#447=POINT_STYLE('',#448,POSITIVE_LENGTH_MEASURE(3.),#449);
#448=PRE_DEFINED_POINT_MARKER_SYMBOL('plus');
#449=COLOUR_RGB('Medium Maroon',0.6,0.4,0.4);
#450=COLOUR_RGB('Medium Steel',0.596063172350652,0.666666666666667,0.686259250782025);
#451=COLOUR_RGB('Silver Gray',0.6,0.6,0.6);
#452=AXIS2_PLACEMENT_3D('',#575,#489,#490);
#453=AXIS2_PLACEMENT_3D('',#577,#491,#492);
#454=AXIS2_PLACEMENT_3D('',#582,#494,#495);
#455=AXIS2_PLACEMENT_3D('',#585,#497,#498);
#456=AXIS2_PLACEMENT_3D('',#586,#499,#500);
#457=AXIS2_PLACEMENT_3D('',#589,#501,#502);
#458=AXIS2_PLACEMENT_3D('',#593,#504,#505);
#459=AXIS2_PLACEMENT_3D('',#597,#507,#508);
#460=AXIS2_PLACEMENT_3D('',#602,#511,#512);
#461=AXIS2_PLACEMENT_3D('',#603,#513,#514);
#462=AXIS2_PLACEMENT_3D('',#606,#516,#517);
#463=AXIS2_PLACEMENT_3D('',#609,#519,#520);
#464=AXIS2_PLACEMENT_3D('',#618,#521,#522);
#465=AXIS2_PLACEMENT_3D('',#635,#523,#524);
#466=AXIS2_PLACEMENT_3D('',#644,#525,#526);
#467=AXIS2_PLACEMENT_3D('',#646,#527,#528);
#468=AXIS2_PLACEMENT_3D('',#647,#529,#530);
#469=AXIS2_PLACEMENT_3D('',#649,#531,#532);
#470=AXIS2_PLACEMENT_3D('',#650,#533,#534);
#471=AXIS2_PLACEMENT_3D('',#652,#535,#536);
#472=AXIS2_PLACEMENT_3D('',#653,#537,#538);
#473=AXIS2_PLACEMENT_3D('',#655,#539,#540);
#474=AXIS2_PLACEMENT_3D('',#656,#541,#542);
#475=AXIS2_PLACEMENT_3D('',#658,#543,#544);
#476=AXIS2_PLACEMENT_3D('',#659,#545,#546);
#477=AXIS2_PLACEMENT_3D('',#661,#547,#548);
#478=AXIS2_PLACEMENT_3D('',#662,#549,#550);
#479=AXIS2_PLACEMENT_3D('',#664,#551,#552);
#480=AXIS2_PLACEMENT_3D('',#665,#553,#554);
#481=AXIS2_PLACEMENT_3D('',#667,#555,#556);
#482=AXIS2_PLACEMENT_3D('',#668,#557,#558);
#483=AXIS2_PLACEMENT_3D('',#670,#560,#561);
#484=AXIS2_PLACEMENT_3D('',#672,#563,#564);
#485=AXIS2_PLACEMENT_3D('',#673,#565,#566);
#486=AXIS2_PLACEMENT_3D('',#675,#568,#569);
#487=AXIS2_PLACEMENT_3D('',#677,#571,#572);
#488=AXIS2_PLACEMENT_3D('',#678,#573,#574);
#489=DIRECTION('',(0.,0.,1.));
#490=DIRECTION('',(1.,0.,0.));
#491=DIRECTION('',(0.,0.,-1.));
#492=DIRECTION('',(-1.,0.,0.));
#493=DIRECTION('',(0.,1.,0.));
#494=DIRECTION('',(0.,0.,-1.));
#495=DIRECTION('',(-1.,0.,0.));
#496=DIRECTION('',(0.,1.,0.));
#497=DIRECTION('',(0.,0.,-1.));
#498=DIRECTION('',(-1.,0.,0.));
#499=DIRECTION('',(0.,0.,-1.));
#500=DIRECTION('',(-1.,0.,0.));
#501=DIRECTION('',(0.,0.,-1.));
#502=DIRECTION('',(-1.,0.,4.89893700160025E-17));
#503=DIRECTION('',(0.,0.,1.));
#504=DIRECTION('',(0.,0.,-1.));
#505=DIRECTION('',(-1.,0.,0.));
#506=DIRECTION('',(0.,0.,-1.));
#507=DIRECTION('',(0.,0.,1.));
#508=DIRECTION('',(1.,0.,0.));
#509=DIRECTION('',(0.,0.,1.));
#510=DIRECTION('',(0.,0.,-1.));
#511=DIRECTION('',(0.,0.,1.));
#512=DIRECTION('',(1.,0.,0.));
#513=DIRECTION('',(0.,0.,-1.));
#514=DIRECTION('',(-1.,0.,0.));
#515=DIRECTION('',(0.,1.,0.));
#516=DIRECTION('',(0.,0.,-1.));
#517=DIRECTION('',(-1.,0.,0.));
#518=DIRECTION('',(0.,1.,0.));
#519=DIRECTION('',(0.,0.,-1.));
#520=DIRECTION('',(-1.,0.,0.));
#521=DIRECTION('',(0.,0.,-1.));
#522=DIRECTION('',(1.,0.,0.));
#523=DIRECTION('',(0.,0.,-1.));
#524=DIRECTION('',(1.,0.,0.));
#525=DIRECTION('',(0.,0.,-1.));
#526=DIRECTION('',(-1.,0.,0.));
#527=DIRECTION('',(0.,0.,1.));
#528=DIRECTION('',(1.,0.,0.));
#529=DIRECTION('',(0.,0.,-1.));
#530=DIRECTION('',(-1.,0.,0.));
#531=DIRECTION('',(0.,0.,-1.));
#532=DIRECTION('',(-1.,0.,0.));
#533=DIRECTION('',(0.,0.,-1.));
#534=DIRECTION('',(-1.,0.,0.));
#535=DIRECTION('',(0.,0.,-1.));
#536=DIRECTION('',(-1.,0.,-2.04185205607864E-17));
#537=DIRECTION('',(0.,0.,-1.));
#538=DIRECTION('',(-1.,0.,0.));
#539=DIRECTION('',(0.,0.,1.));
#540=DIRECTION('',(1.,0.,0.));
#541=DIRECTION('',(0.,0.,-1.));
#542=DIRECTION('',(-1.,0.,0.));
#543=DIRECTION('',(0.,0.,-1.));
#544=DIRECTION('',(-1.,0.,0.));
#545=DIRECTION('',(0.,0.,-1.));
#546=DIRECTION('',(-1.,0.,0.));
#547=DIRECTION('',(0.,0.,-1.));
#548=DIRECTION('',(-1.,0.,0.));
#549=DIRECTION('',(0.,0.,-1.));
#550=DIRECTION('',(-1.,0.,0.));
#551=DIRECTION('',(0.,0.,-1.));
#552=DIRECTION('',(-1.,0.,0.));
#553=DIRECTION('',(0.,0.,-1.));
#554=DIRECTION('',(-1.,0.,0.));
#555=DIRECTION('',(0.,0.,-1.));
#556=DIRECTION('',(-1.,0.,6.60457653003E-18));
#557=DIRECTION('',(0.,0.,1.));
#558=DIRECTION('',(1.,0.,0.));
#559=DIRECTION('',(0.,-1.,0.));
#560=DIRECTION('',(1.,0.,-1.35525271560688E-16));
#561=DIRECTION('',(-1.35525271560688E-16,0.,-1.));
#562=DIRECTION('',(0.,-1.,0.));
#563=DIRECTION('',(0.,0.,1.));
#564=DIRECTION('',(1.,0.,0.));
#565=DIRECTION('',(-1.,0.,-1.35525271560688E-16));
#566=DIRECTION('',(-1.35525271560688E-16,0.,1.));
#567=DIRECTION('',(0.,-1.,0.));
#568=DIRECTION('',(1.,0.,-1.35525271560688E-16));
#569=DIRECTION('',(-1.35525271560688E-16,0.,-1.));
#570=DIRECTION('',(0.,-1.,0.));
#571=DIRECTION('',(-1.,0.,-1.35525271560688E-16));
#572=DIRECTION('',(-1.35525271560688E-16,0.,1.));
#573=DIRECTION('',(0.,0.,1.));
#574=DIRECTION('',(1.,0.,0.));
#575=CARTESIAN_POINT('',(0.,0.,0.));
#576=CARTESIAN_POINT('',(0.,0.,0.));
#577=CARTESIAN_POINT('',(0.,0.,-14.1));
#578=CARTESIAN_POINT('',(0.6,2.52982212813471,-14.1));
#579=CARTESIAN_POINT('',(0.6,-2.52982212813471,-14.1));
#580=CARTESIAN_POINT('',(0.6,-25.,-14.1));
#581=CARTESIAN_POINT('',(0.6,-2.03853501318962,-14.1));
#582=CARTESIAN_POINT('',(0.,0.,-14.1));
#583=CARTESIAN_POINT('',(0.6,2.03853501318962,-14.1));
#584=CARTESIAN_POINT('',(0.6,-25.,-14.1));
#585=CARTESIAN_POINT('',(2.125,0.,-14.1));
#586=CARTESIAN_POINT('',(0.,0.,-1.8));
#587=CARTESIAN_POINT('',(-2.12499999999999,0.,-1.8));
#588=CARTESIAN_POINT('',(-6.35602752122876E-15,0.,-0.523171184566433));
#589=CARTESIAN_POINT('',(0.,0.,-0.523171184566433));
#590=CARTESIAN_POINT('',(-0.600000000000003,-2.03853501318961,9.1));
#591=CARTESIAN_POINT('',(-0.6,-2.03853501318962,-14.1));
#592=CARTESIAN_POINT('',(-0.6,-2.03853501318962,-12.5));
#593=CARTESIAN_POINT('',(0.,0.,-14.1));
#594=CARTESIAN_POINT('',(-0.6,2.03853501318962,-14.1));
#595=CARTESIAN_POINT('',(-0.600000000000003,2.03853501318961,9.1));
#596=CARTESIAN_POINT('',(-0.6,2.03853501318962,-12.5));
#597=CARTESIAN_POINT('',(0.,0.,-12.5));
#598=CARTESIAN_POINT('',(0.6,2.03853501318961,-12.5));
#599=CARTESIAN_POINT('',(0.600000000000003,2.03853501318961,9.1));
#600=CARTESIAN_POINT('',(0.600000000000003,-2.03853501318961,9.1));
#601=CARTESIAN_POINT('',(0.6,-2.03853501318961,-12.5));
#602=CARTESIAN_POINT('',(0.,0.,-12.5));
#603=CARTESIAN_POINT('',(0.,0.,9.1));
#604=CARTESIAN_POINT('',(-0.6,-25.,-14.1));
#605=CARTESIAN_POINT('',(-0.6,-2.52982212813471,-14.1));
#606=CARTESIAN_POINT('',(0.,0.,-14.1));
#607=CARTESIAN_POINT('',(-0.6,2.52982212813471,-14.1));
#608=CARTESIAN_POINT('',(-0.6,-25.,-14.1));
#609=CARTESIAN_POINT('',(2.125,0.,-14.1));
#610=CARTESIAN_POINT('',(-0.6,-2.79635477005333,-12.5));
#611=CARTESIAN_POINT('',(-0.6,-2.74999766318622,-12.7789261256885));
#612=CARTESIAN_POINT('',(-0.6,-2.70359132131239,-13.0578440746185));
#613=CARTESIAN_POINT('',(-0.6,-2.65712759360414,-13.3367524591395));
#614=CARTESIAN_POINT('',(-0.6,-2.61474271493524,-13.5911766868271));
#615=CARTESIAN_POINT('',(-0.6,-2.57231008443469,-13.8455929656168));
#616=CARTESIAN_POINT('',(-0.6,-2.52982212813471,-14.1));
#617=CARTESIAN_POINT('',(-0.6,-2.79635477005333,-12.5));
#618=CARTESIAN_POINT('',(0.,0.,-12.5));
#619=CARTESIAN_POINT('',(0.6,-2.79635477005333,-12.5));
#620=CARTESIAN_POINT('',(0.6,-2.52982212813471,-14.1));
#621=CARTESIAN_POINT('',(0.6,-2.57231008443469,-13.8455929656168));
#622=CARTESIAN_POINT('',(0.6,-2.61474271493524,-13.5911766868271));
#623=CARTESIAN_POINT('',(0.6,-2.65712759360414,-13.3367524591395));
#624=CARTESIAN_POINT('',(0.6,-2.7035913213124,-13.0578440746185));
#625=CARTESIAN_POINT('',(0.6,-2.74999766318622,-12.7789261256885));
#626=CARTESIAN_POINT('',(0.6,-2.79635477005333,-12.5));
#627=CARTESIAN_POINT('',(0.6,2.79635477005333,-12.5));
#628=CARTESIAN_POINT('',(0.6,2.74999766318622,-12.7789261256885));
#629=CARTESIAN_POINT('',(0.6,2.70359132131239,-13.0578440746185));
#630=CARTESIAN_POINT('',(0.6,2.65712759360414,-13.3367524591395));
#631=CARTESIAN_POINT('',(0.6,2.61474271493524,-13.5911766868271));
#632=CARTESIAN_POINT('',(0.6,2.57231008443469,-13.8455929656168));
#633=CARTESIAN_POINT('',(0.6,2.52982212813471,-14.1));
#634=CARTESIAN_POINT('',(0.6,2.79635477005333,-12.5));
#635=CARTESIAN_POINT('',(0.,0.,-12.5));
#636=CARTESIAN_POINT('',(-0.6,2.79635477005333,-12.5));
#637=CARTESIAN_POINT('',(-0.6,2.52982212813471,-14.1));
#638=CARTESIAN_POINT('',(-0.6,2.57231008443469,-13.8455929656168));
#639=CARTESIAN_POINT('',(-0.6,2.61474271493524,-13.5911766868271));
#640=CARTESIAN_POINT('',(-0.6,2.65712759360414,-13.3367524591395));
#641=CARTESIAN_POINT('',(-0.6,2.7035913213124,-13.0578440746185));
#642=CARTESIAN_POINT('',(-0.6,2.74999766318622,-12.7789261256885));
#643=CARTESIAN_POINT('',(-0.6,2.79635477005333,-12.5));
#644=CARTESIAN_POINT('',(0.,0.,-10.1));
#645=CARTESIAN_POINT('',(-3.25,0.,-10.1));
#646=CARTESIAN_POINT('',(0.,0.,-14.1));
#647=CARTESIAN_POINT('',(0.,0.,-6.));
#648=CARTESIAN_POINT('',(-3.25,0.,-6.));
#649=CARTESIAN_POINT('',(0.,0.,9.1));
#650=CARTESIAN_POINT('',(0.,0.,1.73472347597681E-15));
#651=CARTESIAN_POINT('',(-2.25,0.,1.73472347597681E-15));
#652=CARTESIAN_POINT('',(0.,0.,-6.));
#653=CARTESIAN_POINT('',(0.,0.,0.));
#654=CARTESIAN_POINT('',(-1.17499999999999,0.,0.));
#655=CARTESIAN_POINT('',(2.25,0.,8.67361737988404E-16));
#656=CARTESIAN_POINT('',(0.,0.,0.699999999999999));
#657=CARTESIAN_POINT('',(-1.17499999999999,0.,0.699999999999999));
#658=CARTESIAN_POINT('',(0.,0.,9.1));
#659=CARTESIAN_POINT('',(0.,0.,0.699999999999999));
#660=CARTESIAN_POINT('',(-1.5,0.,0.699999999999999));
#661=CARTESIAN_POINT('',(1.17499999999999,0.,0.7));
#662=CARTESIAN_POINT('',(0.,0.,8.05));
#663=CARTESIAN_POINT('',(-1.5,0.,8.05));
#664=CARTESIAN_POINT('',(0.,0.,9.1));
#665=CARTESIAN_POINT('',(0.,0.,9.1));
#666=CARTESIAN_POINT('',(-0.95,0.,9.1));
#667=CARTESIAN_POINT('',(0.,0.,8.05));
#668=CARTESIAN_POINT('',(0.95,0.,9.1));
#669=CARTESIAN_POINT('',(0.6,-25.,-12.5));
#670=CARTESIAN_POINT('',(0.6,-25.,-12.5));
#671=CARTESIAN_POINT('',(-0.6,-25.,-12.5));
#672=CARTESIAN_POINT('',(-0.6,-25.,-12.5));
#673=CARTESIAN_POINT('',(-0.6,-25.,-14.1));
#674=CARTESIAN_POINT('',(0.6,-25.,-12.5));
#675=CARTESIAN_POINT('',(0.6,-25.,-12.5));
#676=CARTESIAN_POINT('',(-0.6,-25.,-12.5));
#677=CARTESIAN_POINT('',(-0.6,-25.,-14.1));
#678=CARTESIAN_POINT('',(-0.6,-25.,-12.5));
#679=MECHANICAL_DESIGN_GEOMETRIC_PRESENTATION_REPRESENTATION('',(#424,#425,
#34,#35,#36,#37,#38,#39,#40,#41,#42,#43,#44,#45,#46,#47,#48,#49,#50,#51,
#52),#680);
#680=(
GEOMETRIC_REPRESENTATION_CONTEXT(3)
GLOBAL_UNCERTAINTY_ASSIGNED_CONTEXT((#681))
GLOBAL_UNIT_ASSIGNED_CONTEXT((#687,#683,#682))
REPRESENTATION_CONTEXT('100860998ugm000_a','TOP_LEVEL_ASSEMBLY_PART')
);
#681=UNCERTAINTY_MEASURE_WITH_UNIT(LENGTH_MEASURE(0.02),#687,
'DISTANCE_ACCURACY_VALUE','Maximum Tolerance applied to model');
#682=(
NAMED_UNIT(*)
SI_UNIT($,.STERADIAN.)
SOLID_ANGLE_UNIT()
);
#683=(
CONVERSION_BASED_UNIT('DEGREE',#685)
NAMED_UNIT(#684)
PLANE_ANGLE_UNIT()
);
#684=DIMENSIONAL_EXPONENTS(0.,0.,0.,0.,0.,0.,0.);
#685=PLANE_ANGLE_MEASURE_WITH_UNIT(PLANE_ANGLE_MEASURE(0.0174532925),#686);
#686=(
NAMED_UNIT(*)
PLANE_ANGLE_UNIT()
SI_UNIT($,.RADIAN.)
);
#687=(
LENGTH_UNIT()
NAMED_UNIT(*)
SI_UNIT(.MILLI.,.METRE.)
);
ENDSEC;
END-ISO-10303-21;
