ISO-10303-21;
HEADER;
/* Generated by software containing ST-Developer
 * from STEP Tools, Inc. (www.steptools.com) 
 */
/* OPTION: using custom schema-name function */

FILE_DESCRIPTION(
/* description */ (''),
/* implementation_level */ '2;1');

FILE_NAME(
/* name */ '100557496ugm000_a.stp',
/* time_stamp */ '2013-11-19T08:23:56+01:00',
/* author */ (''),
/* organization */ (''),
/* preprocessor_version */ 'ST-DEVELOPER v15',
/* originating_system */ 'SIEMENS PLM Software NX 8.5',
/* authorisation */ '');

FILE_SCHEMA (('AUTOMOTIVE_DESIGN { 1 0 10303 214 3 1 1 1 }'));
ENDSEC;

DATA;
#10=SHAPE_REPRESENTATION_RELATIONSHIP('None',
'relationship between 100557496ugm000_a-None and 100557496ugm000_a-Non
e',#22,#11);
#11=ADVANCED_BREP_SHAPE_REPRESENTATION('100557496ugm000_a-None',(#46,#47,
#48),#457);
#12=SHAPE_DEFINITION_REPRESENTATION(#13,#22);
#13=PRODUCT_DEFINITION_SHAPE('','',#14);
#14=PRODUCT_DEFINITION(' ','',#16,#15);
#15=PRODUCT_DEFINITION_CONTEXT('part definition',#21,'design');
#16=PRODUCT_DEFINITION_FORMATION_WITH_SPECIFIED_SOURCE(' ',' ',#18,
 .NOT_KNOWN.);
#17=PRODUCT_RELATED_PRODUCT_CATEGORY('part','',(#18));
#18=PRODUCT('100557496ugm000_a','100557496ugm000_a',' ',(#19));
#19=PRODUCT_CONTEXT(' ',#21,'mechanical');
#20=APPLICATION_PROTOCOL_DEFINITION('international standard',
'automotive_design',2010,#21);
#21=APPLICATION_CONTEXT(
'core data for automotive mechanical design processes');
#22=SHAPE_REPRESENTATION('100557496ugm000_a-None',(#287),#457);
#23=PRESENTATION_LAYER_ASSIGNMENT('1','Layer 1',(#46,#47,#48));
#24=STYLED_ITEM('',(#27),#46);
#25=STYLED_ITEM('',(#28),#47);
#26=STYLED_ITEM('',(#29),#48);
#27=PRESENTATION_STYLE_ASSIGNMENT((#30));
#28=PRESENTATION_STYLE_ASSIGNMENT((#31));
#29=PRESENTATION_STYLE_ASSIGNMENT((#32));
#30=SURFACE_STYLE_USAGE(.BOTH.,#33);
#31=SURFACE_STYLE_USAGE(.BOTH.,#34);
#32=SURFACE_STYLE_USAGE(.BOTH.,#35);
#33=SURFACE_SIDE_STYLE('',(#36));
#34=SURFACE_SIDE_STYLE('',(#37));
#35=SURFACE_SIDE_STYLE('',(#38));
#36=SURFACE_STYLE_FILL_AREA(#39);
#37=SURFACE_STYLE_FILL_AREA(#40);
#38=SURFACE_STYLE_FILL_AREA(#41);
#39=FILL_AREA_STYLE('',(#42));
#40=FILL_AREA_STYLE('',(#43));
#41=FILL_AREA_STYLE('',(#44));
#42=FILL_AREA_STYLE_COLOUR('',#45);
#43=FILL_AREA_STYLE_COLOUR('',#45);
#44=FILL_AREA_STYLE_COLOUR('',#45);
#45=COLOUR_RGB('Orange',1.,0.6,0.);
#46=MANIFOLD_SOLID_BREP('',#49);
#47=MANIFOLD_SOLID_BREP('',#50);
#48=MANIFOLD_SOLID_BREP('',#51);
#49=CLOSED_SHELL('',(#68,#69,#70,#71,#72,#73,#74,#75,#76,#77,#78));
#50=CLOSED_SHELL('',(#79,#80,#81));
#51=CLOSED_SHELL('',(#82,#83,#84,#85));
#52=CONICAL_SURFACE('',#301,1.5,19.7988763545249);
#53=CONICAL_SURFACE('',#302,0.5,74.8759926916894);
#54=CONICAL_SURFACE('',#314,1.,51.3401917459098);
#55=CYLINDRICAL_SURFACE('',#300,1.32);
#56=CYLINDRICAL_SURFACE('',#305,1.5);
#57=CYLINDRICAL_SURFACE('',#310,1.5);
#58=FACE_OUTER_BOUND('',#127,.T.);
#59=FACE_OUTER_BOUND('',#128,.T.);
#60=FACE_OUTER_BOUND('',#129,.T.);
#61=FACE_OUTER_BOUND('',#130,.T.);
#62=FACE_OUTER_BOUND('',#131,.T.);
#63=FACE_OUTER_BOUND('',#132,.T.);
#64=FACE_OUTER_BOUND('',#141,.T.);
#65=FACE_OUTER_BOUND('',#142,.T.);
#66=FACE_OUTER_BOUND('',#145,.T.);
#67=FACE_OUTER_BOUND('',#146,.T.);
#68=ADVANCED_FACE('',(#107,#108),#86,.T.);
#69=ADVANCED_FACE('',(#109,#110),#87,.F.);
#70=ADVANCED_FACE('',(#58),#88,.F.);
#71=ADVANCED_FACE('',(#59),#89,.F.);
#72=ADVANCED_FACE('',(#60),#90,.F.);
#73=ADVANCED_FACE('',(#61),#91,.F.);
#74=ADVANCED_FACE('',(#62),#92,.F.);
#75=ADVANCED_FACE('',(#63),#93,.F.);
#76=ADVANCED_FACE('',(#111,#112),#55,.F.);
#77=ADVANCED_FACE('',(#113,#114),#52,.F.);
#78=ADVANCED_FACE('',(#115,#116),#53,.F.);
#79=ADVANCED_FACE('',(#117,#118),#56,.T.);
#80=ADVANCED_FACE('',(#64),#94,.T.);
#81=ADVANCED_FACE('',(#65),#95,.F.);
#82=ADVANCED_FACE('',(#119,#120),#57,.T.);
#83=ADVANCED_FACE('',(#66),#96,.T.);
#84=ADVANCED_FACE('',(#67),#97,.F.);
#85=ADVANCED_FACE('',(#121,#122),#54,.T.);
#86=PLANE('',#289);
#87=PLANE('',#291);
#88=PLANE('',#292);
#89=PLANE('',#293);
#90=PLANE('',#294);
#91=PLANE('',#295);
#92=PLANE('',#296);
#93=PLANE('',#297);
#94=PLANE('',#306);
#95=PLANE('',#307);
#96=PLANE('',#312);
#97=PLANE('',#313);
#98=CIRCLE('',#288,0.5);
#99=CIRCLE('',#290,1.5);
#100=CIRCLE('',#298,1.32);
#101=CIRCLE('',#299,1.32);
#102=CIRCLE('',#303,1.5);
#103=CIRCLE('',#304,1.5);
#104=CIRCLE('',#308,1.5);
#105=CIRCLE('',#309,1.5);
#106=CIRCLE('',#311,1.);
#107=FACE_BOUND('',#123,.T.);
#108=FACE_BOUND('',#124,.T.);
#109=FACE_BOUND('',#125,.T.);
#110=FACE_BOUND('',#126,.T.);
#111=FACE_BOUND('',#133,.T.);
#112=FACE_BOUND('',#134,.T.);
#113=FACE_BOUND('',#135,.T.);
#114=FACE_BOUND('',#136,.T.);
#115=FACE_BOUND('',#137,.T.);
#116=FACE_BOUND('',#138,.T.);
#117=FACE_BOUND('',#139,.T.);
#118=FACE_BOUND('',#140,.T.);
#119=FACE_BOUND('',#143,.T.);
#120=FACE_BOUND('',#144,.T.);
#121=FACE_BOUND('',#147,.T.);
#122=FACE_BOUND('',#148,.T.);
#123=EDGE_LOOP('',(#149,#150,#151,#152,#153,#154));
#124=EDGE_LOOP('',(#155));
#125=EDGE_LOOP('',(#156,#157,#158,#159,#160,#161));
#126=EDGE_LOOP('',(#162));
#127=EDGE_LOOP('',(#163,#164,#165,#166));
#128=EDGE_LOOP('',(#167,#168,#169,#170));
#129=EDGE_LOOP('',(#171,#172,#173,#174));
#130=EDGE_LOOP('',(#175,#176,#177,#178));
#131=EDGE_LOOP('',(#179,#180,#181,#182));
#132=EDGE_LOOP('',(#183,#184,#185,#186));
#133=EDGE_LOOP('',(#187));
#134=EDGE_LOOP('',(#188));
#135=EDGE_LOOP('',(#189));
#136=EDGE_LOOP('',(#190));
#137=EDGE_LOOP('',(#191));
#138=EDGE_LOOP('',(#192));
#139=EDGE_LOOP('',(#193));
#140=EDGE_LOOP('',(#194));
#141=EDGE_LOOP('',(#195));
#142=EDGE_LOOP('',(#196));
#143=EDGE_LOOP('',(#197));
#144=EDGE_LOOP('',(#198));
#145=EDGE_LOOP('',(#199));
#146=EDGE_LOOP('',(#200));
#147=EDGE_LOOP('',(#201));
#148=EDGE_LOOP('',(#202));
#149=ORIENTED_EDGE('',*,*,#224,.T.);
#150=ORIENTED_EDGE('',*,*,#225,.T.);
#151=ORIENTED_EDGE('',*,*,#226,.T.);
#152=ORIENTED_EDGE('',*,*,#227,.T.);
#153=ORIENTED_EDGE('',*,*,#228,.T.);
#154=ORIENTED_EDGE('',*,*,#229,.T.);
#155=ORIENTED_EDGE('',*,*,#230,.T.);
#156=ORIENTED_EDGE('',*,*,#231,.F.);
#157=ORIENTED_EDGE('',*,*,#232,.F.);
#158=ORIENTED_EDGE('',*,*,#233,.F.);
#159=ORIENTED_EDGE('',*,*,#234,.F.);
#160=ORIENTED_EDGE('',*,*,#235,.F.);
#161=ORIENTED_EDGE('',*,*,#236,.F.);
#162=ORIENTED_EDGE('',*,*,#237,.F.);
#163=ORIENTED_EDGE('',*,*,#231,.T.);
#164=ORIENTED_EDGE('',*,*,#238,.F.);
#165=ORIENTED_EDGE('',*,*,#224,.F.);
#166=ORIENTED_EDGE('',*,*,#239,.T.);
#167=ORIENTED_EDGE('',*,*,#236,.T.);
#168=ORIENTED_EDGE('',*,*,#240,.F.);
#169=ORIENTED_EDGE('',*,*,#225,.F.);
#170=ORIENTED_EDGE('',*,*,#238,.T.);
#171=ORIENTED_EDGE('',*,*,#235,.T.);
#172=ORIENTED_EDGE('',*,*,#241,.F.);
#173=ORIENTED_EDGE('',*,*,#226,.F.);
#174=ORIENTED_EDGE('',*,*,#240,.T.);
#175=ORIENTED_EDGE('',*,*,#234,.T.);
#176=ORIENTED_EDGE('',*,*,#242,.F.);
#177=ORIENTED_EDGE('',*,*,#227,.F.);
#178=ORIENTED_EDGE('',*,*,#241,.T.);
#179=ORIENTED_EDGE('',*,*,#233,.T.);
#180=ORIENTED_EDGE('',*,*,#243,.F.);
#181=ORIENTED_EDGE('',*,*,#228,.F.);
#182=ORIENTED_EDGE('',*,*,#242,.T.);
#183=ORIENTED_EDGE('',*,*,#232,.T.);
#184=ORIENTED_EDGE('',*,*,#239,.F.);
#185=ORIENTED_EDGE('',*,*,#229,.F.);
#186=ORIENTED_EDGE('',*,*,#243,.T.);
#187=ORIENTED_EDGE('',*,*,#244,.T.);
#188=ORIENTED_EDGE('',*,*,#245,.T.);
#189=ORIENTED_EDGE('',*,*,#245,.F.);
#190=ORIENTED_EDGE('',*,*,#237,.T.);
#191=ORIENTED_EDGE('',*,*,#244,.F.);
#192=ORIENTED_EDGE('',*,*,#230,.F.);
#193=ORIENTED_EDGE('',*,*,#246,.F.);
#194=ORIENTED_EDGE('',*,*,#247,.T.);
#195=ORIENTED_EDGE('',*,*,#246,.T.);
#196=ORIENTED_EDGE('',*,*,#247,.F.);
#197=ORIENTED_EDGE('',*,*,#248,.T.);
#198=ORIENTED_EDGE('',*,*,#249,.T.);
#199=ORIENTED_EDGE('',*,*,#250,.T.);
#200=ORIENTED_EDGE('',*,*,#249,.F.);
#201=ORIENTED_EDGE('',*,*,#248,.F.);
#202=ORIENTED_EDGE('',*,*,#250,.F.);
#203=VERTEX_POINT('',#391);
#204=VERTEX_POINT('',#392);
#205=VERTEX_POINT('',#394);
#206=VERTEX_POINT('',#396);
#207=VERTEX_POINT('',#398);
#208=VERTEX_POINT('',#400);
#209=VERTEX_POINT('',#403);
#210=VERTEX_POINT('',#406);
#211=VERTEX_POINT('',#407);
#212=VERTEX_POINT('',#409);
#213=VERTEX_POINT('',#411);
#214=VERTEX_POINT('',#413);
#215=VERTEX_POINT('',#415);
#216=VERTEX_POINT('',#418);
#217=VERTEX_POINT('',#433);
#218=VERTEX_POINT('',#435);
#219=VERTEX_POINT('',#440);
#220=VERTEX_POINT('',#442);
#221=VERTEX_POINT('',#447);
#222=VERTEX_POINT('',#449);
#223=VERTEX_POINT('',#452);
#224=EDGE_CURVE('',#203,#204,#251,.T.);
#225=EDGE_CURVE('',#204,#205,#252,.T.);
#226=EDGE_CURVE('',#205,#206,#253,.T.);
#227=EDGE_CURVE('',#206,#207,#254,.T.);
#228=EDGE_CURVE('',#207,#208,#255,.T.);
#229=EDGE_CURVE('',#208,#203,#256,.T.);
#230=EDGE_CURVE('',#209,#209,#98,.T.);
#231=EDGE_CURVE('',#210,#211,#257,.T.);
#232=EDGE_CURVE('',#212,#210,#258,.T.);
#233=EDGE_CURVE('',#213,#212,#259,.T.);
#234=EDGE_CURVE('',#214,#213,#260,.T.);
#235=EDGE_CURVE('',#215,#214,#261,.T.);
#236=EDGE_CURVE('',#211,#215,#262,.T.);
#237=EDGE_CURVE('',#216,#216,#99,.T.);
#238=EDGE_CURVE('',#204,#211,#263,.T.);
#239=EDGE_CURVE('',#203,#210,#264,.T.);
#240=EDGE_CURVE('',#205,#215,#265,.T.);
#241=EDGE_CURVE('',#206,#214,#266,.T.);
#242=EDGE_CURVE('',#207,#213,#267,.T.);
#243=EDGE_CURVE('',#208,#212,#268,.T.);
#244=EDGE_CURVE('',#217,#217,#100,.T.);
#245=EDGE_CURVE('',#218,#218,#101,.T.);
#246=EDGE_CURVE('',#219,#219,#102,.T.);
#247=EDGE_CURVE('',#220,#220,#103,.T.);
#248=EDGE_CURVE('',#221,#221,#104,.T.);
#249=EDGE_CURVE('',#222,#222,#105,.T.);
#250=EDGE_CURVE('',#223,#223,#106,.T.);
#251=LINE('',#390,#269);
#252=LINE('',#393,#270);
#253=LINE('',#395,#271);
#254=LINE('',#397,#272);
#255=LINE('',#399,#273);
#256=LINE('',#401,#274);
#257=LINE('',#405,#275);
#258=LINE('',#408,#276);
#259=LINE('',#410,#277);
#260=LINE('',#412,#278);
#261=LINE('',#414,#279);
#262=LINE('',#416,#280);
#263=LINE('',#420,#281);
#264=LINE('',#421,#282);
#265=LINE('',#423,#283);
#266=LINE('',#425,#284);
#267=LINE('',#427,#285);
#268=LINE('',#429,#286);
#269=VECTOR('',#317,1.);
#270=VECTOR('',#318,1.);
#271=VECTOR('',#319,1.);
#272=VECTOR('',#320,1.);
#273=VECTOR('',#321,1.);
#274=VECTOR('',#322,1.);
#275=VECTOR('',#327,1.);
#276=VECTOR('',#328,1.);
#277=VECTOR('',#329,1.);
#278=VECTOR('',#330,1.);
#279=VECTOR('',#331,1.);
#280=VECTOR('',#332,1.);
#281=VECTOR('',#337,1.);
#282=VECTOR('',#338,1.);
#283=VECTOR('',#341,1.);
#284=VECTOR('',#344,1.);
#285=VECTOR('',#347,1.);
#286=VECTOR('',#350,1.);
#287=AXIS2_PLACEMENT_3D('',#389,#315,#316);
#288=AXIS2_PLACEMENT_3D('',#402,#323,#324);
#289=AXIS2_PLACEMENT_3D('',#404,#325,#326);
#290=AXIS2_PLACEMENT_3D('',#417,#333,#334);
#291=AXIS2_PLACEMENT_3D('',#419,#335,#336);
#292=AXIS2_PLACEMENT_3D('',#422,#339,#340);
#293=AXIS2_PLACEMENT_3D('',#424,#342,#343);
#294=AXIS2_PLACEMENT_3D('',#426,#345,#346);
#295=AXIS2_PLACEMENT_3D('',#428,#348,#349);
#296=AXIS2_PLACEMENT_3D('',#430,#351,#352);
#297=AXIS2_PLACEMENT_3D('',#431,#353,#354);
#298=AXIS2_PLACEMENT_3D('',#432,#355,#356);
#299=AXIS2_PLACEMENT_3D('',#434,#357,#358);
#300=AXIS2_PLACEMENT_3D('',#436,#359,#360);
#301=AXIS2_PLACEMENT_3D('',#437,#361,#362);
#302=AXIS2_PLACEMENT_3D('',#438,#363,#364);
#303=AXIS2_PLACEMENT_3D('',#439,#365,#366);
#304=AXIS2_PLACEMENT_3D('',#441,#367,#368);
#305=AXIS2_PLACEMENT_3D('',#443,#369,#370);
#306=AXIS2_PLACEMENT_3D('',#444,#371,#372);
#307=AXIS2_PLACEMENT_3D('',#445,#373,#374);
#308=AXIS2_PLACEMENT_3D('',#446,#375,#376);
#309=AXIS2_PLACEMENT_3D('',#448,#377,#378);
#310=AXIS2_PLACEMENT_3D('',#450,#379,#380);
#311=AXIS2_PLACEMENT_3D('',#451,#381,#382);
#312=AXIS2_PLACEMENT_3D('',#453,#383,#384);
#313=AXIS2_PLACEMENT_3D('',#454,#385,#386);
#314=AXIS2_PLACEMENT_3D('',#455,#387,#388);
#315=DIRECTION('',(0.,0.,1.));
#316=DIRECTION('',(1.,0.,0.));
#317=DIRECTION('',(0.,-0.500277597874632,-0.865865073244549));
#318=DIRECTION('',(0.,0.500277597874628,-0.865865073244551));
#319=DIRECTION('',(0.,1.,0.));
#320=DIRECTION('',(0.,0.500277597874632,0.865865073244549));
#321=DIRECTION('',(0.,-0.500277597874628,0.865865073244551));
#322=DIRECTION('',(0.,-1.,0.));
#323=DIRECTION('',(-1.,0.,0.));
#324=DIRECTION('',(0.,1.,0.));
#325=DIRECTION('',(1.,0.,0.));
#326=DIRECTION('',(0.,0.,-1.));
#327=DIRECTION('',(0.,-0.500277597874632,-0.865865073244549));
#328=DIRECTION('',(0.,-1.,0.));
#329=DIRECTION('',(0.,-0.500277597874628,0.865865073244551));
#330=DIRECTION('',(0.,0.500277597874632,0.865865073244549));
#331=DIRECTION('',(0.,1.,0.));
#332=DIRECTION('',(0.,0.500277597874628,-0.865865073244551));
#333=DIRECTION('',(-1.,0.,0.));
#334=DIRECTION('',(0.,-1.,-2.89120579329468E-016));
#335=DIRECTION('',(1.,0.,0.));
#336=DIRECTION('',(0.,0.,-1.));
#337=DIRECTION('',(-1.,0.,0.));
#338=DIRECTION('',(-1.,0.,0.));
#339=DIRECTION('',(0.,0.865865073244549,-0.500277597874632));
#340=DIRECTION('',(0.,0.500277597874632,0.865865073244549));
#341=DIRECTION('',(-1.,0.,0.));
#342=DIRECTION('',(0.,0.865865073244551,0.500277597874628));
#343=DIRECTION('',(0.,-0.500277597874628,0.865865073244551));
#344=DIRECTION('',(-1.,0.,0.));
#345=DIRECTION('',(0.,0.,1.));
#346=DIRECTION('',(1.,0.,0.));
#347=DIRECTION('',(-1.,0.,0.));
#348=DIRECTION('',(0.,-0.865865073244549,0.500277597874632));
#349=DIRECTION('',(0.,-0.500277597874632,-0.865865073244549));
#350=DIRECTION('',(-1.,0.,0.));
#351=DIRECTION('',(0.,-0.865865073244551,-0.500277597874628));
#352=DIRECTION('',(0.,0.500277597874628,-0.865865073244551));
#353=DIRECTION('',(0.,0.,-1.));
#354=DIRECTION('',(-1.,0.,0.));
#355=DIRECTION('',(1.,0.,0.));
#356=DIRECTION('',(0.,0.,1.));
#357=DIRECTION('',(-1.,0.,0.));
#358=DIRECTION('',(0.,1.,0.));
#359=DIRECTION('',(-1.,0.,0.));
#360=DIRECTION('',(0.,0.,1.));
#361=DIRECTION('',(-1.,0.,0.));
#362=DIRECTION('',(0.,0.,1.));
#363=DIRECTION('',(-1.,0.,0.));
#364=DIRECTION('',(9.37561667870185E-019,0.,1.));
#365=DIRECTION('',(1.,0.,0.));
#366=DIRECTION('',(0.,1.,0.));
#367=DIRECTION('',(1.,0.,0.));
#368=DIRECTION('',(0.,1.,0.));
#369=DIRECTION('',(-1.,0.,0.));
#370=DIRECTION('',(0.,0.,1.));
#371=DIRECTION('',(1.,0.,0.));
#372=DIRECTION('',(0.,0.,-1.));
#373=DIRECTION('',(1.,0.,0.));
#374=DIRECTION('',(0.,0.,-1.));
#375=DIRECTION('',(-1.,0.,0.));
#376=DIRECTION('',(0.,0.,-1.));
#377=DIRECTION('',(1.,0.,0.));
#378=DIRECTION('',(0.,1.,0.));
#379=DIRECTION('',(-1.,0.,0.));
#380=DIRECTION('',(0.,0.,1.));
#381=DIRECTION('',(1.,0.,0.));
#382=DIRECTION('',(0.,0.,-1.));
#383=DIRECTION('',(1.,0.,0.));
#384=DIRECTION('',(0.,0.,-1.));
#385=DIRECTION('',(1.,0.,0.));
#386=DIRECTION('',(0.,0.,-1.));
#387=DIRECTION('',(-1.,0.,0.));
#388=DIRECTION('',(1.38666944522527E-017,0.,1.));
#389=CARTESIAN_POINT('',(0.,0.,0.));
#390=CARTESIAN_POINT('',(5.,0.,0.));
#391=CARTESIAN_POINT('',(5.,0.,0.));
#392=CARTESIAN_POINT('',(5.,-1.30000000000001,-2.25));
#393=CARTESIAN_POINT('',(5.,-1.3,-2.25));
#394=CARTESIAN_POINT('',(5.,-4.55364912443912E-015,-4.5));
#395=CARTESIAN_POINT('',(5.,0.,-4.5));
#396=CARTESIAN_POINT('',(5.,2.6,-4.5));
#397=CARTESIAN_POINT('',(5.,2.59999999999999,-4.50000000000001));
#398=CARTESIAN_POINT('',(5.,3.9,-2.25000000000001));
#399=CARTESIAN_POINT('',(5.,3.9,-2.25000000000001));
#400=CARTESIAN_POINT('',(5.,2.6,-4.77048955893622E-015));
#401=CARTESIAN_POINT('',(5.,2.6,0.));
#402=CARTESIAN_POINT('',(5.,1.3,-2.25));
#403=CARTESIAN_POINT('',(5.,1.8,-2.25));
#404=CARTESIAN_POINT('',(5.,0.,0.));
#405=CARTESIAN_POINT('',(0.,0.,0.));
#406=CARTESIAN_POINT('',(0.,0.,0.));
#407=CARTESIAN_POINT('',(0.,-1.30000000000001,-2.25));
#408=CARTESIAN_POINT('',(0.,2.6,0.));
#409=CARTESIAN_POINT('',(0.,2.6,-4.77048955893622E-015));
#410=CARTESIAN_POINT('',(0.,3.9,-2.25000000000001));
#411=CARTESIAN_POINT('',(0.,3.9,-2.25000000000001));
#412=CARTESIAN_POINT('',(0.,2.59999999999999,-4.50000000000001));
#413=CARTESIAN_POINT('',(0.,2.6,-4.5));
#414=CARTESIAN_POINT('',(0.,0.,-4.5));
#415=CARTESIAN_POINT('',(0.,-4.55364912443912E-015,-4.5));
#416=CARTESIAN_POINT('',(0.,-1.3,-2.25));
#417=CARTESIAN_POINT('',(0.,1.3,-2.25));
#418=CARTESIAN_POINT('',(0.,-0.200000000000005,-2.25));
#419=CARTESIAN_POINT('',(0.,0.,0.));
#420=CARTESIAN_POINT('',(5.,-1.30000000000001,-2.25));
#421=CARTESIAN_POINT('',(5.,0.,0.));
#422=CARTESIAN_POINT('',(5.,0.,0.));
#423=CARTESIAN_POINT('',(5.,-4.55364912443912E-015,-4.5));
#424=CARTESIAN_POINT('',(5.,-1.3,-2.25));
#425=CARTESIAN_POINT('',(5.,2.6,-4.5));
#426=CARTESIAN_POINT('',(5.,0.,-4.5));
#427=CARTESIAN_POINT('',(5.,3.9,-2.25000000000001));
#428=CARTESIAN_POINT('',(5.,2.59999999999999,-4.50000000000001));
#429=CARTESIAN_POINT('',(5.,2.6,-4.77048955893622E-015));
#430=CARTESIAN_POINT('',(5.,3.9,-2.25000000000001));
#431=CARTESIAN_POINT('',(5.,2.6,0.));
#432=CARTESIAN_POINT('',(4.77837837837838,1.3,-2.25));
#433=CARTESIAN_POINT('',(4.77837837837838,1.3,-0.93));
#434=CARTESIAN_POINT('',(0.5,1.3,-2.25));
#435=CARTESIAN_POINT('',(0.5,2.62,-2.25));
#436=CARTESIAN_POINT('',(4.5,1.3,-2.25));
#437=CARTESIAN_POINT('',(0.,1.3,-2.25));
#438=CARTESIAN_POINT('',(5.,1.3,-2.25));
#439=CARTESIAN_POINT('',(5.9,1.3,-2.25000000000001));
#440=CARTESIAN_POINT('',(5.9,2.8,-2.25000000000001));
#441=CARTESIAN_POINT('',(5.,1.3,-2.25000000000001));
#442=CARTESIAN_POINT('',(5.,2.8,-2.25000000000001));
#443=CARTESIAN_POINT('',(5.9,1.3,-2.25000000000001));
#444=CARTESIAN_POINT('',(5.9,1.3,-2.25000000000001));
#445=CARTESIAN_POINT('',(5.,1.3,-2.25000000000001));
#446=CARTESIAN_POINT('',(17.6,1.3,-2.25000000000001));
#447=CARTESIAN_POINT('',(17.6,1.3,-3.75000000000001));
#448=CARTESIAN_POINT('',(5.9,1.3,-2.25000000000001));
#449=CARTESIAN_POINT('',(5.9,2.8,-2.25000000000001));
#450=CARTESIAN_POINT('',(18.,1.3,-2.25000000000001));
#451=CARTESIAN_POINT('',(18.,1.3,-2.25000000000001));
#452=CARTESIAN_POINT('',(18.,1.3,-3.25000000000001));
#453=CARTESIAN_POINT('',(18.,1.3,-2.25000000000001));
#454=CARTESIAN_POINT('',(5.9,1.3,-2.25000000000001));
#455=CARTESIAN_POINT('',(18.,1.3,-2.25000000000001));
#456=MECHANICAL_DESIGN_GEOMETRIC_PRESENTATION_REPRESENTATION('',(#24,#25,
#26),#457);
#457=(
GEOMETRIC_REPRESENTATION_CONTEXT(3)
GLOBAL_UNCERTAINTY_ASSIGNED_CONTEXT((#458))
GLOBAL_UNIT_ASSIGNED_CONTEXT((#464,#460,#459))
REPRESENTATION_CONTEXT('100557496ugm000_a','TOP_LEVEL_ASSEMBLY_PART')
);
#458=UNCERTAINTY_MEASURE_WITH_UNIT(LENGTH_MEASURE(2.E-005),#464,
'DISTANCE_ACCURACY_VALUE','Maximum Tolerance applied to model');
#459=(
NAMED_UNIT(*)
SI_UNIT($,.STERADIAN.)
SOLID_ANGLE_UNIT()
);
#460=(
CONVERSION_BASED_UNIT('DEGREE',#462)
NAMED_UNIT(#461)
PLANE_ANGLE_UNIT()
);
#461=DIMENSIONAL_EXPONENTS(0.,0.,0.,0.,0.,0.,0.);
#462=PLANE_ANGLE_MEASURE_WITH_UNIT(PLANE_ANGLE_MEASURE(0.0174532925),#463);
#463=(
NAMED_UNIT(*)
PLANE_ANGLE_UNIT()
SI_UNIT($,.RADIAN.)
);
#464=(
LENGTH_UNIT()
NAMED_UNIT(*)
SI_UNIT(.MILLI.,.METRE.)
);
ENDSEC;
END-ISO-10303-21;
