ISO-10303-21;
HEADER;
FILE_DESCRIPTION( ( 'STEP AP203' ), '1' );
FILE_NAME( 'p:/temp/worker_99/temp/exporttempdir_4032_561_pfcNg/format_0/FLEXA MSD 5031.034.021.stp', '2020-03-26T11:00:58', ( 'License CC BY-ND 4.0' ), ( 'CADENAS' ), ' ', 'PARTsolutions', ' ' );
FILE_SCHEMA( ( 'CONFIG_CONTROL_DESIGN' ) );
ENDSEC;
DATA;
#1 = DESIGN_CONTEXT( '', #27, 'design' );
#2 = APPLICATION_PROTOCOL_DEFINITION( 'international standard', 'config_control_design', 1994, #27 );
#3 = PRODUCT_CATEGORY_RELATIONSHIP( 'NONE', 'NONE', #28, #29 );
#4 = DATE_AND_TIME( #30, #31 );
#5 = DATE_TIME_ROLE( 'creation_date' );
#6 = DATE_TIME_ROLE( 'classification_date' );
#7 = PERSON_AND_ORGANIZATION_ROLE( 'creator' );
#8 = PERSON_AND_ORGANIZATION_ROLE( 'design_supplier' );
#9 = PERSON_AND_ORGANIZATION_ROLE( 'classification_officer' );
#10 = PERSON_AND_ORGANIZATION_ROLE( 'design_owner' );
#11 = APPROVAL_PERSON_ORGANIZATION( #32, #33, #34 );
#12 = APPROVAL_DATE_TIME( #4, #33 );
#13 = CC_DESIGN_APPROVAL( #33, ( #35, #36, #37 ) );
#14 = CC_DESIGN_DATE_AND_TIME_ASSIGNMENT( #4, #5, ( #37 ) );
#15 = CC_DESIGN_DATE_AND_TIME_ASSIGNMENT( #4, #6, ( #35 ) );
#16 = CC_DESIGN_PERSON_AND_ORGANIZATION_ASSIGNMENT( #32, #10, ( #38 ) );
#17 = CC_DESIGN_PERSON_AND_ORGANIZATION_ASSIGNMENT( #32, #7, ( #37 ) );
#18 = CC_DESIGN_PERSON_AND_ORGANIZATION_ASSIGNMENT( #32, #7, ( #36 ) );
#19 = CC_DESIGN_PERSON_AND_ORGANIZATION_ASSIGNMENT( #32, #8, ( #36 ) );
#20 = CC_DESIGN_SECURITY_CLASSIFICATION( #35, ( #36 ) );
#21 = CC_DESIGN_PERSON_AND_ORGANIZATION_ASSIGNMENT( #32, #9, ( #35 ) );
#22 = SHAPE_DEFINITION_REPRESENTATION( #39, #40 );
#23 =  ( GEOMETRIC_REPRESENTATION_CONTEXT( 3 )GLOBAL_UNCERTAINTY_ASSIGNED_CONTEXT( ( #43 ) )GLOBAL_UNIT_ASSIGNED_CONTEXT( ( #45, #46, #47 ) )REPRESENTATION_CONTEXT( 'NONE', 'WORKSPACE' ) );
#27 = APPLICATION_CONTEXT( 'configuration controlled 3D designs of mechanical parts and assemblies' );
#28 = PRODUCT_CATEGORY( 'part', 'NONE' );
#29 = PRODUCT_RELATED_PRODUCT_CATEGORY( 'detail', ' ', ( #38 ) );
#30 = CALENDAR_DATE( 2020, 26, 2 );
#31 = LOCAL_TIME( 12, 0, 58.0000000000000, #49 );
#32 = PERSON_AND_ORGANIZATION( #50, #51 );
#33 = APPROVAL( #52, 'SOLID MODEL' );
#34 = APPROVAL_ROLE( 'APPROVED' );
#35 = SECURITY_CLASSIFICATION( '', '', #53 );
#36 = PRODUCT_DEFINITION_FORMATION_WITH_SPECIFIED_SOURCE( ' ', 'NONE', #38, .NOT_KNOWN. );
#37 = PRODUCT_DEFINITION( 'NONE', 'NONE', #36, #1 );
#38 = PRODUCT( '_FLEXA MSD 5031.034.021', '_FLEXA MSD 5031.034.021', 'PART-_FLEXA MSD 5031.034.021-DESC', ( #54 ) );
#39 = PRODUCT_DEFINITION_SHAPE( 'NONE', 'NONE', #37 );
#40 = ADVANCED_BREP_SHAPE_REPRESENTATION( '_FLEXA MSD 5031.034.021', ( #55, #56 ), #23 );
#43 = UNCERTAINTY_MEASURE_WITH_UNIT( LENGTH_MEASURE( 0.00100000000000000 ), #45, '', '' );
#45 =  ( CONVERSION_BASED_UNIT( 'MILLIMETRE', #59 )LENGTH_UNIT(  )NAMED_UNIT( #62 ) );
#46 =  ( NAMED_UNIT( #64 )PLANE_ANGLE_UNIT(  )SI_UNIT( $, .RADIAN. ) );
#47 =  ( NAMED_UNIT( #64 )SI_UNIT( $, .STERADIAN. )SOLID_ANGLE_UNIT(  ) );
#49 = COORDINATED_UNIVERSAL_TIME_OFFSET( 1, 0, .AHEAD. );
#50 = PERSON( '', 'UNSPECIFIED', $, $, $, $ );
#51 = ORGANIZATION( 'UNSPECIFIED', 'UNSPECIFIED', 'UNSPECIFIED' );
#52 = APPROVAL_STATUS( 'approved' );
#53 = SECURITY_CLASSIFICATION_LEVEL( 'unclassified' );
#54 = MECHANICAL_CONTEXT( '', #27, 'mechanical' );
#55 = MANIFOLD_SOLID_BREP( '_FLEXA MSD 5031.034.021', #70 );
#56 = AXIS2_PLACEMENT_3D( '', #71, #72, #73 );
#59 = LENGTH_MEASURE_WITH_UNIT( LENGTH_MEASURE( 1.00000000000000 ), #74 );
#62 = DIMENSIONAL_EXPONENTS( 1.00000000000000, 0.000000000000000, 0.000000000000000, 0.000000000000000, 0.000000000000000, 0.000000000000000, 0.000000000000000 );
#64 = DIMENSIONAL_EXPONENTS( 0.000000000000000, 0.000000000000000, 0.000000000000000, 0.000000000000000, 0.000000000000000, 0.000000000000000, 0.000000000000000 );
#70 = CLOSED_SHELL( '', ( #75, #76, #77, #78, #79, #80, #81, #82 ) );
#71 = CARTESIAN_POINT( '', ( 0.000000000000000, 0.000000000000000, 0.000000000000000 ) );
#72 = DIRECTION( '', ( 0.000000000000000, 0.000000000000000, 1.00000000000000 ) );
#73 = DIRECTION( '', ( 1.00000000000000, 0.000000000000000, 0.000000000000000 ) );
#74 =  ( LENGTH_UNIT(  )NAMED_UNIT( #62 )SI_UNIT( .MILLI., .METRE. ) );
#75 = ADVANCED_FACE( '', ( #84 ), #85, .T. );
#76 = ADVANCED_FACE( '', ( #86 ), #87, .T. );
#77 = ADVANCED_FACE( '', ( #88 ), #89, .T. );
#78 = ADVANCED_FACE( '', ( #90 ), #91, .F. );
#79 = ADVANCED_FACE( '', ( #92 ), #93, .T. );
#80 = ADVANCED_FACE( '', ( #94 ), #95, .F. );
#81 = ADVANCED_FACE( '', ( #96 ), #97, .T. );
#82 = ADVANCED_FACE( '', ( #98 ), #99, .T. );
#84 = FACE_OUTER_BOUND( '', #100, .T. );
#85 = PLANE( '', #101 );
#86 = FACE_OUTER_BOUND( '', #102, .T. );
#87 = CONICAL_SURFACE( '', #103, 13.8500000000000, 0.468342410200000 );
#88 = FACE_OUTER_BOUND( '', #104, .T. );
#89 = PLANE( '', #105 );
#90 = FACE_OUTER_BOUND( '', #106, .T. );
#91 = CYLINDRICAL_SURFACE( '', #107, 13.6500000000000 );
#92 = FACE_OUTER_BOUND( '', #108, .T. );
#93 = PLANE( '', #109 );
#94 = FACE_OUTER_BOUND( '', #110, .T. );
#95 = CONICAL_SURFACE( '', #111, 15.5000000000000, 0.410557448000000 );
#96 = FACE_OUTER_BOUND( '', #112, .T. );
#97 = CYLINDRICAL_SURFACE( '', #113, 16.0000000000000 );
#98 = FACE_OUTER_BOUND( '', #114, .T. );
#99 = PLANE( '', #115 );
#100 = EDGE_LOOP( '', ( #116, #117, #118, #119, #120, #121 ) );
#101 = AXIS2_PLACEMENT_3D( '', #122, #123, #124 );
#102 = EDGE_LOOP( '', ( #125, #126, #127, #128 ) );
#103 = AXIS2_PLACEMENT_3D( '', #129, #130, #131 );
#104 = EDGE_LOOP( '', ( #132, #133, #134, #135 ) );
#105 = AXIS2_PLACEMENT_3D( '', #136, #137, #138 );
#106 = EDGE_LOOP( '', ( #139, #140, #141, #142 ) );
#107 = AXIS2_PLACEMENT_3D( '', #143, #144, #145 );
#108 = EDGE_LOOP( '', ( #146, #147, #148, #149 ) );
#109 = AXIS2_PLACEMENT_3D( '', #150, #151, #152 );
#110 = EDGE_LOOP( '', ( #153, #154, #155, #156 ) );
#111 = AXIS2_PLACEMENT_3D( '', #157, #158, #159 );
#112 = EDGE_LOOP( '', ( #160, #161, #162, #163 ) );
#113 = AXIS2_PLACEMENT_3D( '', #164, #165, #166 );
#114 = EDGE_LOOP( '', ( #167, #168, #169, #170, #171, #172 ) );
#115 = AXIS2_PLACEMENT_3D( '', #173, #174, #175 );
#116 = ORIENTED_EDGE( '', *, *, #176, .F. );
#117 = ORIENTED_EDGE( '', *, *, #177, .T. );
#118 = ORIENTED_EDGE( '', *, *, #178, .F. );
#119 = ORIENTED_EDGE( '', *, *, #179, .F. );
#120 = ORIENTED_EDGE( '', *, *, #180, .F. );
#121 = ORIENTED_EDGE( '', *, *, #181, .F. );
#122 = CARTESIAN_POINT( '', ( 4.25000000000000, 0.000000000000000, 2.25000000000000 ) );
#123 = DIRECTION( '', ( 0.000000000000000, 0.000000000000000, -1.00000000000000 ) );
#124 = DIRECTION( '', ( -1.00000000000000, 0.000000000000000, 0.000000000000000 ) );
#125 = ORIENTED_EDGE( '', *, *, #182, .F. );
#126 = ORIENTED_EDGE( '', *, *, #183, .T. );
#127 = ORIENTED_EDGE( '', *, *, #184, .T. );
#128 = ORIENTED_EDGE( '', *, *, #178, .T. );
#129 = CARTESIAN_POINT( '', ( 4.25000000000000, 0.000000000000000, 0.000000000000000 ) );
#130 = DIRECTION( '', ( -1.00000000000000, 0.000000000000000, -0.000000000000000 ) );
#131 = DIRECTION( '', ( 0.000000000000000, 0.000000000000000, 1.00000000000000 ) );
#132 = ORIENTED_EDGE( '', *, *, #185, .F. );
#133 = ORIENTED_EDGE( '', *, *, #186, .F. );
#134 = ORIENTED_EDGE( '', *, *, #182, .T. );
#135 = ORIENTED_EDGE( '', *, *, #177, .F. );
#136 = CARTESIAN_POINT( '', ( 4.25000000000000, 13.6500000000000, 0.000000000000000 ) );
#137 = DIRECTION( '', ( 1.00000000000000, 0.000000000000000, -0.000000000000000 ) );
#138 = DIRECTION( '', ( -0.000000000000000, 0.000000000000000, -1.00000000000000 ) );
#139 = ORIENTED_EDGE( '', *, *, #187, .F. );
#140 = ORIENTED_EDGE( '', *, *, #188, .T. );
#141 = ORIENTED_EDGE( '', *, *, #185, .T. );
#142 = ORIENTED_EDGE( '', *, *, #176, .T. );
#143 = CARTESIAN_POINT( '', ( 4.25000000000000, 0.000000000000000, 0.000000000000000 ) );
#144 = DIRECTION( '', ( -1.00000000000000, -0.000000000000000, 0.000000000000000 ) );
#145 = DIRECTION( '', ( -0.000000000000000, 0.000000000000000, -1.00000000000000 ) );
#146 = ORIENTED_EDGE( '', *, *, #189, .F. );
#147 = ORIENTED_EDGE( '', *, *, #190, .T. );
#148 = ORIENTED_EDGE( '', *, *, #191, .T. );
#149 = ORIENTED_EDGE( '', *, *, #180, .T. );
#150 = CARTESIAN_POINT( '', ( -4.25000000000000, 16.0000000000000, 0.000000000000000 ) );
#151 = DIRECTION( '', ( -1.00000000000000, 0.000000000000000, 0.000000000000000 ) );
#152 = DIRECTION( '', ( 0.000000000000000, 0.000000000000000, 1.00000000000000 ) );
#153 = ORIENTED_EDGE( '', *, *, #191, .F. );
#154 = ORIENTED_EDGE( '', *, *, #192, .T. );
#155 = ORIENTED_EDGE( '', *, *, #187, .T. );
#156 = ORIENTED_EDGE( '', *, *, #181, .T. );
#157 = CARTESIAN_POINT( '', ( -4.25000000000000, 0.000000000000000, 0.000000000000000 ) );
#158 = DIRECTION( '', ( -1.00000000000000, 0.000000000000000, -0.000000000000000 ) );
#159 = DIRECTION( '', ( 0.000000000000000, 0.000000000000000, 1.00000000000000 ) );
#160 = ORIENTED_EDGE( '', *, *, #184, .F. );
#161 = ORIENTED_EDGE( '', *, *, #193, .T. );
#162 = ORIENTED_EDGE( '', *, *, #189, .T. );
#163 = ORIENTED_EDGE( '', *, *, #179, .T. );
#164 = CARTESIAN_POINT( '', ( 4.25000000000000, 0.000000000000000, 0.000000000000000 ) );
#165 = DIRECTION( '', ( -1.00000000000000, -0.000000000000000, 0.000000000000000 ) );
#166 = DIRECTION( '', ( -0.000000000000000, 0.000000000000000, -1.00000000000000 ) );
#167 = ORIENTED_EDGE( '', *, *, #190, .F. );
#168 = ORIENTED_EDGE( '', *, *, #193, .F. );
#169 = ORIENTED_EDGE( '', *, *, #183, .F. );
#170 = ORIENTED_EDGE( '', *, *, #186, .T. );
#171 = ORIENTED_EDGE( '', *, *, #188, .F. );
#172 = ORIENTED_EDGE( '', *, *, #192, .F. );
#173 = CARTESIAN_POINT( '', ( 4.25000000000000, -32.0000000000000, -2.25000000000000 ) );
#174 = DIRECTION( '', ( 0.000000000000000, 0.000000000000000, 1.00000000000000 ) );
#175 = DIRECTION( '', ( 1.00000000000000, 0.000000000000000, -0.000000000000000 ) );
#176 = EDGE_CURVE( '', #194, #195, #196, .F. );
#177 = EDGE_CURVE( '', #194, #197, #198, .T. );
#178 = EDGE_CURVE( '', #199, #197, #200, .T. );
#179 = EDGE_CURVE( '', #201, #199, #202, .T. );
#180 = EDGE_CURVE( '', #203, #201, #204, .T. );
#181 = EDGE_CURVE( '', #195, #203, #205, .T. );
#182 = EDGE_CURVE( '', #206, #197, #207, .T. );
#183 = EDGE_CURVE( '', #206, #208, #209, .T. );
#184 = EDGE_CURVE( '', #208, #199, #210, .T. );
#185 = EDGE_CURVE( '', #211, #194, #212, .T. );
#186 = EDGE_CURVE( '', #206, #211, #213, .T. );
#187 = EDGE_CURVE( '', #214, #195, #215, .T. );
#188 = EDGE_CURVE( '', #214, #211, #216, .T. );
#189 = EDGE_CURVE( '', #217, #201, #218, .T. );
#190 = EDGE_CURVE( '', #217, #219, #220, .T. );
#191 = EDGE_CURVE( '', #219, #203, #221, .T. );
#192 = EDGE_CURVE( '', #219, #214, #222, .T. );
#193 = EDGE_CURVE( '', #208, #217, #223, .F. );
#194 = VERTEX_POINT( '', #224 );
#195 = VERTEX_POINT( '', #225 );
#196 = LINE( '', #226, #227 );
#197 = VERTEX_POINT( '', #228 );
#198 = LINE( '', #229, #230 );
#199 = VERTEX_POINT( '', #231 );
#200 = B_SPLINE_CURVE_WITH_KNOTS( '', 3, ( #232, #233, #234, #235 ), .UNSPECIFIED., .F., .F., ( 4, 4 ), ( 0.0176220910578322, 0.0223963006010450 ), .UNSPECIFIED. );
#201 = VERTEX_POINT( '', #236 );
#202 = LINE( '', #237, #238 );
#203 = VERTEX_POINT( '', #239 );
#204 = LINE( '', #240, #241 );
#205 = B_SPLINE_CURVE_WITH_KNOTS( '', 3, ( #242, #243, #244, #245 ), .UNSPECIFIED., .F., .F., ( 4, 4 ), ( 0.0186582410750016, 0.0233024048867340 ), .UNSPECIFIED. );
#206 = VERTEX_POINT( '', #246 );
#207 = CIRCLE( '', #247, 13.8500000000000 );
#208 = VERTEX_POINT( '', #248 );
#209 = B_SPLINE_CURVE_WITH_KNOTS( '', 3, ( #249, #250, #251, #252 ), .UNSPECIFIED., .F., .F., ( 4, 4 ), ( 0.0183101380371088, 0.0230842152544426 ), .UNSPECIFIED. );
#210 = CIRCLE( '', #253, 16.0000000000000 );
#211 = VERTEX_POINT( '', #254 );
#212 = CIRCLE( '', #255, 13.6500000000000 );
#213 = LINE( '', #256, #257 );
#214 = VERTEX_POINT( '', #258 );
#215 = CIRCLE( '', #259, 13.6500000000000 );
#216 = LINE( '', #260, #261 );
#217 = VERTEX_POINT( '', #262 );
#218 = CIRCLE( '', #263, 16.0000000000000 );
#219 = VERTEX_POINT( '', #264 );
#220 = LINE( '', #265, #266 );
#221 = CIRCLE( '', #267, 15.5000000000000 );
#222 = B_SPLINE_CURVE_WITH_KNOTS( '', 3, ( #268, #269, #270, #271 ), .UNSPECIFIED., .F., .F., ( 4, 4 ), ( 0.0179819439555470, 0.0226261761991555 ), .UNSPECIFIED. );
#223 = LINE( '', #272, #273 );
#224 = CARTESIAN_POINT( '', ( 4.25000000000000, -13.4632834033901, 2.25000000000000 ) );
#225 = CARTESIAN_POINT( '', ( 0.000000000000000, -13.4632834033901, 2.25000000000000 ) );
#226 = CARTESIAN_POINT( '', ( 4.25000000000000, -13.4632834033901, 2.25000000000000 ) );
#227 = VECTOR( '', #274, 1000.00000000000 );
#228 = CARTESIAN_POINT( '', ( 4.25000000000000, -13.6660162446852, 2.25000000000000 ) );
#229 = CARTESIAN_POINT( '', ( 4.25000000000000, 0.000000000000000, 2.25000000000000 ) );
#230 = VECTOR( '', #275, 1000.00000000000 );
#231 = CARTESIAN_POINT( '', ( 8.67361737988404E-16, -15.8410069124409, 2.25000000000000 ) );
#232 = CARTESIAN_POINT( '', ( 1.27679814116334E-15, -15.8410069124409, 2.25000000000000 ) );
#233 = CARTESIAN_POINT( '', ( 1.41712836619249, -15.1169112927402, 2.25000000000000 ) );
#234 = CARTESIAN_POINT( '', ( 2.83387335354027, -14.3920544345999, 2.25000000000000 ) );
#235 = CARTESIAN_POINT( '', ( 4.25000000000000, -13.6660162446852, 2.25000000000000 ) );
#236 = CARTESIAN_POINT( '', ( -4.25000000000000, -15.8410069124409, 2.25000000000000 ) );
#237 = CARTESIAN_POINT( '', ( 4.25000000000000, -15.8410069124409, 2.25000000000000 ) );
#238 = VECTOR( '', #276, 1000.00000000000 );
#239 = CARTESIAN_POINT( '', ( -4.25000000000000, -15.3358240730650, 2.25000000000000 ) );
#240 = CARTESIAN_POINT( '', ( -4.25000000000000, 0.000000000000000, 2.25000000000000 ) );
#241 = VECTOR( '', #277, 1000.00000000000 );
#242 = CARTESIAN_POINT( '', ( 3.20507930899296E-15, -13.4632834033901, 2.25000000000000 ) );
#243 = CARTESIAN_POINT( '', ( -1.41628250699037, -14.0883328182658, 2.25000000000000 ) );
#244 = CARTESIAN_POINT( '', ( -2.83299737797716, -14.7124079463324, 2.25000000000000 ) );
#245 = CARTESIAN_POINT( '', ( -4.25000000000000, -15.3358240730650, 2.25000000000000 ) );
#246 = CARTESIAN_POINT( '', ( 4.25000000000000, -13.6660162446852, -2.25000000000000 ) );
#247 = AXIS2_PLACEMENT_3D( '', #278, #279, #280 );
#248 = CARTESIAN_POINT( '', ( 8.67361737988404E-16, -15.8410069124409, -2.25000000000000 ) );
#249 = CARTESIAN_POINT( '', ( 4.25000000000000, -13.6660162446852, -2.25000000000000 ) );
#250 = CARTESIAN_POINT( '', ( 2.83386950058726, -14.3920564099819, -2.25000000000000 ) );
#251 = CARTESIAN_POINT( '', ( 1.41712735974980, -15.1169118069920, -2.25000000000000 ) );
#252 = CARTESIAN_POINT( '', ( 8.63789161634016E-16, -15.8410069124409, -2.25000000000000 ) );
#253 = AXIS2_PLACEMENT_3D( '', #281, #282, #283 );
#254 = CARTESIAN_POINT( '', ( 4.25000000000000, -13.4632834033901, -2.25000000000000 ) );
#255 = AXIS2_PLACEMENT_3D( '', #284, #285, #286 );
#256 = CARTESIAN_POINT( '', ( 4.25000000000000, -32.0000000000000, -2.25000000000000 ) );
#257 = VECTOR( '', #287, 1000.00000000000 );
#258 = CARTESIAN_POINT( '', ( 0.000000000000000, -13.4632834033901, -2.25000000000000 ) );
#259 = AXIS2_PLACEMENT_3D( '', #288, #289, #290 );
#260 = CARTESIAN_POINT( '', ( 4.25000000000000, -13.4632834033901, -2.25000000000000 ) );
#261 = VECTOR( '', #291, 1000.00000000000 );
#262 = CARTESIAN_POINT( '', ( -4.25000000000000, -15.8410069124409, -2.25000000000000 ) );
#263 = AXIS2_PLACEMENT_3D( '', #292, #293, #294 );
#264 = CARTESIAN_POINT( '', ( -4.25000000000000, -15.3358240730650, -2.25000000000000 ) );
#265 = CARTESIAN_POINT( '', ( -4.25000000000000, -32.0000000000000, -2.25000000000000 ) );
#266 = VECTOR( '', #295, 1000.00000000000 );
#267 = AXIS2_PLACEMENT_3D( '', #296, #297, #298 );
#268 = CARTESIAN_POINT( '', ( -4.25000000000000, -15.3358240730650, -2.25000000000000 ) );
#269 = CARTESIAN_POINT( '', ( -2.83299672129083, -14.7124076574205, -2.25000000000000 ) );
#270 = CARTESIAN_POINT( '', ( -1.41627999987037, -14.0883317117959, -2.25000000000000 ) );
#271 = CARTESIAN_POINT( '', ( -7.22217842874976E-16, -13.4632834033901, -2.25000000000000 ) );
#272 = CARTESIAN_POINT( '', ( 4.25000000000000, -15.8410069124409, -2.25000000000000 ) );
#273 = VECTOR( '', #299, 1000.00000000000 );
#274 = DIRECTION( '', ( 1.00000000000000, -0.000000000000000, -0.000000000000000 ) );
#275 = DIRECTION( '', ( 0.000000000000000, -1.00000000000000, 0.000000000000000 ) );
#276 = DIRECTION( '', ( 1.00000000000000, -0.000000000000000, -0.000000000000000 ) );
#277 = DIRECTION( '', ( 0.000000000000000, -1.00000000000000, 0.000000000000000 ) );
#278 = CARTESIAN_POINT( '', ( 4.25000000000000, 0.000000000000000, 0.000000000000000 ) );
#279 = DIRECTION( '', ( 1.00000000000000, 0.000000000000000, -0.000000000000000 ) );
#280 = DIRECTION( '', ( -0.000000000000000, 0.000000000000000, -1.00000000000000 ) );
#281 = CARTESIAN_POINT( '', ( 8.67361737988404E-16, 0.000000000000000, 0.000000000000000 ) );
#282 = DIRECTION( '', ( 1.00000000000000, 0.000000000000000, -0.000000000000000 ) );
#283 = DIRECTION( '', ( -0.000000000000000, 0.000000000000000, -1.00000000000000 ) );
#284 = CARTESIAN_POINT( '', ( 4.25000000000000, 0.000000000000000, 0.000000000000000 ) );
#285 = DIRECTION( '', ( 1.00000000000000, 0.000000000000000, -0.000000000000000 ) );
#286 = DIRECTION( '', ( -0.000000000000000, 0.000000000000000, -1.00000000000000 ) );
#287 = DIRECTION( '', ( 0.000000000000000, 1.00000000000000, 0.000000000000000 ) );
#288 = CARTESIAN_POINT( '', ( 0.000000000000000, 0.000000000000000, 0.000000000000000 ) );
#289 = DIRECTION( '', ( 1.00000000000000, 0.000000000000000, -0.000000000000000 ) );
#290 = DIRECTION( '', ( -0.000000000000000, 0.000000000000000, -1.00000000000000 ) );
#291 = DIRECTION( '', ( 1.00000000000000, -0.000000000000000, -0.000000000000000 ) );
#292 = CARTESIAN_POINT( '', ( -4.25000000000000, 0.000000000000000, 0.000000000000000 ) );
#293 = DIRECTION( '', ( 1.00000000000000, 0.000000000000000, -0.000000000000000 ) );
#294 = DIRECTION( '', ( -0.000000000000000, 0.000000000000000, -1.00000000000000 ) );
#295 = DIRECTION( '', ( 0.000000000000000, 1.00000000000000, 0.000000000000000 ) );
#296 = CARTESIAN_POINT( '', ( -4.25000000000000, 0.000000000000000, 0.000000000000000 ) );
#297 = DIRECTION( '', ( 1.00000000000000, 0.000000000000000, -0.000000000000000 ) );
#298 = DIRECTION( '', ( -0.000000000000000, 0.000000000000000, -1.00000000000000 ) );
#299 = DIRECTION( '', ( 1.00000000000000, -0.000000000000000, -0.000000000000000 ) );
ENDSEC;
END-ISO-10303-21;
