ISO-10303-21;
HEADER;
FILE_DESCRIPTION( ( 'STEP AP203' ), '1' );
FILE_NAME( 'p:/temp/worker_181/temp/exporttempdir_6724_103_K4uDh/format_0/FLEXA TED 5030.013.056.stp', '2020-03-27T08:20:48', ( 'License CC BY-ND 4.0' ), ( 'CADENAS' ), ' ', 'PARTsolutions', ' ' );
FILE_SCHEMA( ( 'CONFIG_CONTROL_DESIGN' ) );
ENDSEC;
DATA;
#1 = DESIGN_CONTEXT( '', #27, 'design' );
#2 = APPLICATION_PROTOCOL_DEFINITION( 'international standard', 'config_control_design', 1994, #27 );
#3 = PRODUCT_CATEGORY_RELATIONSHIP( 'NONE', 'NONE', #28, #29 );
#4 = DATE_AND_TIME( #30, #31 );
#5 = DATE_TIME_ROLE( 'creation_date' );
#6 = DATE_TIME_ROLE( 'classification_date' );
#7 = PERSON_AND_ORGANIZATION_ROLE( 'creator' );
#8 = PERSON_AND_ORGANIZATION_ROLE( 'design_supplier' );
#9 = PERSON_AND_ORGANIZATION_ROLE( 'classification_officer' );
#10 = PERSON_AND_ORGANIZATION_ROLE( 'design_owner' );
#11 = APPROVAL_PERSON_ORGANIZATION( #32, #33, #34 );
#12 = APPROVAL_DATE_TIME( #4, #33 );
#13 = CC_DESIGN_APPROVAL( #33, ( #35, #36, #37 ) );
#14 = CC_DESIGN_DATE_AND_TIME_ASSIGNMENT( #4, #5, ( #37 ) );
#15 = CC_DESIGN_DATE_AND_TIME_ASSIGNMENT( #4, #6, ( #35 ) );
#16 = CC_DESIGN_PERSON_AND_ORGANIZATION_ASSIGNMENT( #32, #10, ( #38 ) );
#17 = CC_DESIGN_PERSON_AND_ORGANIZATION_ASSIGNMENT( #32, #7, ( #37 ) );
#18 = CC_DESIGN_PERSON_AND_ORGANIZATION_ASSIGNMENT( #32, #7, ( #36 ) );
#19 = CC_DESIGN_PERSON_AND_ORGANIZATION_ASSIGNMENT( #32, #8, ( #36 ) );
#20 = CC_DESIGN_SECURITY_CLASSIFICATION( #35, ( #36 ) );
#21 = CC_DESIGN_PERSON_AND_ORGANIZATION_ASSIGNMENT( #32, #9, ( #35 ) );
#22 = SHAPE_DEFINITION_REPRESENTATION( #39, #40 );
#23 =  ( GEOMETRIC_REPRESENTATION_CONTEXT( 3 )GLOBAL_UNCERTAINTY_ASSIGNED_CONTEXT( ( #43 ) )GLOBAL_UNIT_ASSIGNED_CONTEXT( ( #45, #46, #47 ) )REPRESENTATION_CONTEXT( 'NONE', 'WORKSPACE' ) );
#27 = APPLICATION_CONTEXT( 'configuration controlled 3D designs of mechanical parts and assemblies' );
#28 = PRODUCT_CATEGORY( 'part', 'NONE' );
#29 = PRODUCT_RELATED_PRODUCT_CATEGORY( 'detail', ' ', ( #38 ) );
#30 = CALENDAR_DATE( 2020, 27, 2 );
#31 = LOCAL_TIME( 9, 20, 48.0000000000000, #49 );
#32 = PERSON_AND_ORGANIZATION( #50, #51 );
#33 = APPROVAL( #52, 'SOLID MODEL' );
#34 = APPROVAL_ROLE( 'APPROVED' );
#35 = SECURITY_CLASSIFICATION( '', '', #53 );
#36 = PRODUCT_DEFINITION_FORMATION_WITH_SPECIFIED_SOURCE( ' ', 'NONE', #38, .NOT_KNOWN. );
#37 = PRODUCT_DEFINITION( 'NONE', 'NONE', #36, #1 );
#38 = PRODUCT( '_FLEXA TED 5030.013.056', '_FLEXA TED 5030.013.056', 'PART-_FLEXA TED 5030.013.056-DESC', ( #54 ) );
#39 = PRODUCT_DEFINITION_SHAPE( 'NONE', 'NONE', #37 );
#40 = ADVANCED_BREP_SHAPE_REPRESENTATION( '_FLEXA TED 5030.013.056', ( #55, #56 ), #23 );
#43 = UNCERTAINTY_MEASURE_WITH_UNIT( LENGTH_MEASURE( 0.00100000000000000 ), #45, '', '' );
#45 =  ( CONVERSION_BASED_UNIT( 'MILLIMETRE', #59 )LENGTH_UNIT(  )NAMED_UNIT( #62 ) );
#46 =  ( NAMED_UNIT( #64 )PLANE_ANGLE_UNIT(  )SI_UNIT( $, .RADIAN. ) );
#47 =  ( NAMED_UNIT( #64 )SI_UNIT( $, .STERADIAN. )SOLID_ANGLE_UNIT(  ) );
#49 = COORDINATED_UNIVERSAL_TIME_OFFSET( 1, 0, .AHEAD. );
#50 = PERSON( '', 'UNSPECIFIED', $, $, $, $ );
#51 = ORGANIZATION( 'UNSPECIFIED', 'UNSPECIFIED', 'UNSPECIFIED' );
#52 = APPROVAL_STATUS( 'approved' );
#53 = SECURITY_CLASSIFICATION_LEVEL( 'unclassified' );
#54 = MECHANICAL_CONTEXT( '', #27, 'mechanical' );
#55 = MANIFOLD_SOLID_BREP( '_FLEXA TED 5030.013.056', #70 );
#56 = AXIS2_PLACEMENT_3D( '', #71, #72, #73 );
#59 = LENGTH_MEASURE_WITH_UNIT( LENGTH_MEASURE( 1.00000000000000 ), #74 );
#62 = DIMENSIONAL_EXPONENTS( 1.00000000000000, 0.000000000000000, 0.000000000000000, 0.000000000000000, 0.000000000000000, 0.000000000000000, 0.000000000000000 );
#64 = DIMENSIONAL_EXPONENTS( 0.000000000000000, 0.000000000000000, 0.000000000000000, 0.000000000000000, 0.000000000000000, 0.000000000000000, 0.000000000000000 );
#70 = CLOSED_SHELL( '', ( #75, #76, #77, #78, #79 ) );
#71 = CARTESIAN_POINT( '', ( 0.000000000000000, 0.000000000000000, 0.000000000000000 ) );
#72 = DIRECTION( '', ( 0.000000000000000, 0.000000000000000, 1.00000000000000 ) );
#73 = DIRECTION( '', ( 1.00000000000000, 0.000000000000000, 0.000000000000000 ) );
#74 =  ( LENGTH_UNIT(  )NAMED_UNIT( #62 )SI_UNIT( .MILLI., .METRE. ) );
#75 = ADVANCED_FACE( '', ( #81, #82 ), #83, .T. );
#76 = ADVANCED_FACE( '', ( #84, #85 ), #86, .F. );
#77 = ADVANCED_FACE( '', ( #87, #88 ), #89, .T. );
#78 = ADVANCED_FACE( '', ( #90, #91 ), #92, .T. );
#79 = ADVANCED_FACE( '', ( #93, #94 ), #95, .T. );
#81 = FACE_BOUND( '', #96, .T. );
#82 = FACE_OUTER_BOUND( '', #97, .T. );
#83 = PLANE( '', #98 );
#84 = FACE_OUTER_BOUND( '', #99, .T. );
#85 = FACE_OUTER_BOUND( '', #100, .T. );
#86 = CYLINDRICAL_SURFACE( '', #101, 28.2500000000000 );
#87 = FACE_OUTER_BOUND( '', #102, .T. );
#88 = FACE_BOUND( '', #103, .T. );
#89 = PLANE( '', #104 );
#90 = FACE_OUTER_BOUND( '', #105, .T. );
#91 = FACE_BOUND( '', #106, .T. );
#92 = CONICAL_SURFACE( '', #107, 28.4500000000000, 0.407429851900000 );
#93 = FACE_OUTER_BOUND( '', #108, .T. );
#94 = FACE_OUTER_BOUND( '', #109, .T. );
#95 = CYLINDRICAL_SURFACE( '', #110, 30.5000000000000 );
#96 = EDGE_LOOP( '', ( #111 ) );
#97 = EDGE_LOOP( '', ( #112 ) );
#98 = AXIS2_PLACEMENT_3D( '', #113, #114, #115 );
#99 = EDGE_LOOP( '', ( #116 ) );
#100 = EDGE_LOOP( '', ( #117 ) );
#101 = AXIS2_PLACEMENT_3D( '', #118, #119, #120 );
#102 = EDGE_LOOP( '', ( #121 ) );
#103 = EDGE_LOOP( '', ( #122 ) );
#104 = AXIS2_PLACEMENT_3D( '', #123, #124, #125 );
#105 = EDGE_LOOP( '', ( #126 ) );
#106 = EDGE_LOOP( '', ( #127 ) );
#107 = AXIS2_PLACEMENT_3D( '', #128, #129, #130 );
#108 = EDGE_LOOP( '', ( #131 ) );
#109 = EDGE_LOOP( '', ( #132 ) );
#110 = AXIS2_PLACEMENT_3D( '', #133, #134, #135 );
#111 = ORIENTED_EDGE( '', *, *, #136, .T. );
#112 = ORIENTED_EDGE( '', *, *, #137, .F. );
#113 = CARTESIAN_POINT( '', ( -4.75000000000000, 30.5000000000000, 0.000000000000000 ) );
#114 = DIRECTION( '', ( -1.00000000000000, 0.000000000000000, 0.000000000000000 ) );
#115 = DIRECTION( '', ( 0.000000000000000, 0.000000000000000, 1.00000000000000 ) );
#116 = ORIENTED_EDGE( '', *, *, #138, .T. );
#117 = ORIENTED_EDGE( '', *, *, #136, .F. );
#118 = CARTESIAN_POINT( '', ( 4.75000000000000, 0.000000000000000, 0.000000000000000 ) );
#119 = DIRECTION( '', ( -1.00000000000000, -0.000000000000000, 0.000000000000000 ) );
#120 = DIRECTION( '', ( -0.000000000000000, 0.000000000000000, -1.00000000000000 ) );
#121 = ORIENTED_EDGE( '', *, *, #139, .T. );
#122 = ORIENTED_EDGE( '', *, *, #138, .F. );
#123 = CARTESIAN_POINT( '', ( 4.75000000000000, 28.2500000000000, 0.000000000000000 ) );
#124 = DIRECTION( '', ( 1.00000000000000, 0.000000000000000, -0.000000000000000 ) );
#125 = DIRECTION( '', ( -0.000000000000000, 0.000000000000000, -1.00000000000000 ) );
#126 = ORIENTED_EDGE( '', *, *, #140, .T. );
#127 = ORIENTED_EDGE( '', *, *, #139, .F. );
#128 = CARTESIAN_POINT( '', ( 4.75000000000000, 0.000000000000000, 0.000000000000000 ) );
#129 = DIRECTION( '', ( -1.00000000000000, 0.000000000000000, -0.000000000000000 ) );
#130 = DIRECTION( '', ( 0.000000000000000, 0.000000000000000, 1.00000000000000 ) );
#131 = ORIENTED_EDGE( '', *, *, #137, .T. );
#132 = ORIENTED_EDGE( '', *, *, #140, .F. );
#133 = CARTESIAN_POINT( '', ( 4.75000000000000, 0.000000000000000, 0.000000000000000 ) );
#134 = DIRECTION( '', ( -1.00000000000000, -0.000000000000000, 0.000000000000000 ) );
#135 = DIRECTION( '', ( -0.000000000000000, 0.000000000000000, -1.00000000000000 ) );
#136 = EDGE_CURVE( '', #141, #141, #142, .T. );
#137 = EDGE_CURVE( '', #143, #143, #144, .T. );
#138 = EDGE_CURVE( '', #145, #145, #146, .T. );
#139 = EDGE_CURVE( '', #147, #147, #148, .T. );
#140 = EDGE_CURVE( '', #149, #149, #150, .T. );
#141 = VERTEX_POINT( '', #151 );
#142 = CIRCLE( '', #152, 28.2500000000000 );
#143 = VERTEX_POINT( '', #153 );
#144 = CIRCLE( '', #154, 30.5000000000000 );
#145 = VERTEX_POINT( '', #155 );
#146 = CIRCLE( '', #156, 28.2500000000000 );
#147 = VERTEX_POINT( '', #157 );
#148 = CIRCLE( '', #158, 28.4500000000000 );
#149 = VERTEX_POINT( '', #159 );
#150 = CIRCLE( '', #160, 30.5000000000000 );
#151 = CARTESIAN_POINT( '', ( -4.75000000000000, 0.000000000000000, -28.2500000000000 ) );
#152 = AXIS2_PLACEMENT_3D( '', #161, #162, #163 );
#153 = CARTESIAN_POINT( '', ( -4.75000000000000, 0.000000000000000, -30.5000000000000 ) );
#154 = AXIS2_PLACEMENT_3D( '', #164, #165, #166 );
#155 = CARTESIAN_POINT( '', ( 4.75000000000000, 0.000000000000000, -28.2500000000000 ) );
#156 = AXIS2_PLACEMENT_3D( '', #167, #168, #169 );
#157 = CARTESIAN_POINT( '', ( 4.75000000000000, 0.000000000000000, -28.4500000000000 ) );
#158 = AXIS2_PLACEMENT_3D( '', #170, #171, #172 );
#159 = CARTESIAN_POINT( '', ( 0.000000000000000, 0.000000000000000, -30.5000000000000 ) );
#160 = AXIS2_PLACEMENT_3D( '', #173, #174, #175 );
#161 = CARTESIAN_POINT( '', ( -4.75000000000000, 0.000000000000000, 0.000000000000000 ) );
#162 = DIRECTION( '', ( 1.00000000000000, 0.000000000000000, -0.000000000000000 ) );
#163 = DIRECTION( '', ( -0.000000000000000, 0.000000000000000, -1.00000000000000 ) );
#164 = CARTESIAN_POINT( '', ( -4.75000000000000, 0.000000000000000, 0.000000000000000 ) );
#165 = DIRECTION( '', ( 1.00000000000000, 0.000000000000000, -0.000000000000000 ) );
#166 = DIRECTION( '', ( -0.000000000000000, 0.000000000000000, -1.00000000000000 ) );
#167 = CARTESIAN_POINT( '', ( 4.75000000000000, 0.000000000000000, 0.000000000000000 ) );
#168 = DIRECTION( '', ( 1.00000000000000, 0.000000000000000, -0.000000000000000 ) );
#169 = DIRECTION( '', ( -0.000000000000000, 0.000000000000000, -1.00000000000000 ) );
#170 = CARTESIAN_POINT( '', ( 4.75000000000000, 0.000000000000000, 0.000000000000000 ) );
#171 = DIRECTION( '', ( 1.00000000000000, 0.000000000000000, -0.000000000000000 ) );
#172 = DIRECTION( '', ( -0.000000000000000, 0.000000000000000, -1.00000000000000 ) );
#173 = CARTESIAN_POINT( '', ( 0.000000000000000, 0.000000000000000, 0.000000000000000 ) );
#174 = DIRECTION( '', ( 1.00000000000000, 0.000000000000000, -0.000000000000000 ) );
#175 = DIRECTION( '', ( -0.000000000000000, 0.000000000000000, -1.00000000000000 ) );
ENDSEC;
END-ISO-10303-21;
