ISO-10303-21;
HEADER;
FILE_DESCRIPTION( ( 'STEP AP203' ), '1' );
FILE_NAME( 'p:/temp/worker_181/temp/exporttempdir_3868_344_HaKeA/format_0/FLEXA RQE 5030.012.209.stp', '2020-03-27T08:42:46', ( 'License CC BY-ND 4.0' ), ( 'CADENAS' ), ' ', 'PARTsolutions', ' ' );
FILE_SCHEMA( ( 'CONFIG_CONTROL_DESIGN' ) );
ENDSEC;
DATA;
#1 = DESIGN_CONTEXT( '', #27, 'design' );
#2 = APPLICATION_PROTOCOL_DEFINITION( 'international standard', 'config_control_design', 1994, #27 );
#3 = PRODUCT_CATEGORY_RELATIONSHIP( 'NONE', 'NONE', #28, #29 );
#4 = DATE_AND_TIME( #30, #31 );
#5 = DATE_TIME_ROLE( 'creation_date' );
#6 = DATE_TIME_ROLE( 'classification_date' );
#7 = PERSON_AND_ORGANIZATION_ROLE( 'creator' );
#8 = PERSON_AND_ORGANIZATION_ROLE( 'design_supplier' );
#9 = PERSON_AND_ORGANIZATION_ROLE( 'classification_officer' );
#10 = PERSON_AND_ORGANIZATION_ROLE( 'design_owner' );
#11 = APPROVAL_PERSON_ORGANIZATION( #32, #33, #34 );
#12 = APPROVAL_DATE_TIME( #4, #33 );
#13 = CC_DESIGN_APPROVAL( #33, ( #35, #36, #37 ) );
#14 = CC_DESIGN_DATE_AND_TIME_ASSIGNMENT( #4, #5, ( #37 ) );
#15 = CC_DESIGN_DATE_AND_TIME_ASSIGNMENT( #4, #6, ( #35 ) );
#16 = CC_DESIGN_PERSON_AND_ORGANIZATION_ASSIGNMENT( #32, #10, ( #38 ) );
#17 = CC_DESIGN_PERSON_AND_ORGANIZATION_ASSIGNMENT( #32, #7, ( #37 ) );
#18 = CC_DESIGN_PERSON_AND_ORGANIZATION_ASSIGNMENT( #32, #7, ( #36 ) );
#19 = CC_DESIGN_PERSON_AND_ORGANIZATION_ASSIGNMENT( #32, #8, ( #36 ) );
#20 = CC_DESIGN_SECURITY_CLASSIFICATION( #35, ( #36 ) );
#21 = CC_DESIGN_PERSON_AND_ORGANIZATION_ASSIGNMENT( #32, #9, ( #35 ) );
#22 = SHAPE_DEFINITION_REPRESENTATION( #39, #40 );
#23 =  ( GEOMETRIC_REPRESENTATION_CONTEXT( 3 )GLOBAL_UNCERTAINTY_ASSIGNED_CONTEXT( ( #43 ) )GLOBAL_UNIT_ASSIGNED_CONTEXT( ( #45, #46, #47 ) )REPRESENTATION_CONTEXT( 'NONE', 'WORKSPACE' ) );
#27 = APPLICATION_CONTEXT( 'configuration controlled 3D designs of mechanical parts and assemblies' );
#28 = PRODUCT_CATEGORY( 'part', 'NONE' );
#29 = PRODUCT_RELATED_PRODUCT_CATEGORY( 'detail', ' ', ( #38 ) );
#30 = CALENDAR_DATE( 2020, 27, 2 );
#31 = LOCAL_TIME( 9, 42, 46.0000000000000, #49 );
#32 = PERSON_AND_ORGANIZATION( #50, #51 );
#33 = APPROVAL( #52, 'SOLID MODEL' );
#34 = APPROVAL_ROLE( 'APPROVED' );
#35 = SECURITY_CLASSIFICATION( '', '', #53 );
#36 = PRODUCT_DEFINITION_FORMATION_WITH_SPECIFIED_SOURCE( ' ', 'NONE', #38, .NOT_KNOWN. );
#37 = PRODUCT_DEFINITION( 'NONE', 'NONE', #36, #1 );
#38 = PRODUCT( '_FLEXA RQE 5030.012.209', '_FLEXA RQE 5030.012.209', 'PART-_FLEXA RQE 5030.012.209-DESC', ( #54 ) );
#39 = PRODUCT_DEFINITION_SHAPE( 'NONE', 'NONE', #37 );
#40 = ADVANCED_BREP_SHAPE_REPRESENTATION( '_FLEXA RQE 5030.012.209', ( #55, #56 ), #23 );
#43 = UNCERTAINTY_MEASURE_WITH_UNIT( LENGTH_MEASURE( 0.00100000000000000 ), #45, '', '' );
#45 =  ( CONVERSION_BASED_UNIT( 'MILLIMETRE', #59 )LENGTH_UNIT(  )NAMED_UNIT( #62 ) );
#46 =  ( NAMED_UNIT( #64 )PLANE_ANGLE_UNIT(  )SI_UNIT( $, .RADIAN. ) );
#47 =  ( NAMED_UNIT( #64 )SI_UNIT( $, .STERADIAN. )SOLID_ANGLE_UNIT(  ) );
#49 = COORDINATED_UNIVERSAL_TIME_OFFSET( 1, 0, .AHEAD. );
#50 = PERSON( '', 'UNSPECIFIED', $, $, $, $ );
#51 = ORGANIZATION( 'UNSPECIFIED', 'UNSPECIFIED', 'UNSPECIFIED' );
#52 = APPROVAL_STATUS( 'approved' );
#53 = SECURITY_CLASSIFICATION_LEVEL( 'unclassified' );
#54 = MECHANICAL_CONTEXT( '', #27, 'mechanical' );
#55 = MANIFOLD_SOLID_BREP( '_FLEXA RQE 5030.012.209', #70 );
#56 = AXIS2_PLACEMENT_3D( '', #71, #72, #73 );
#59 = LENGTH_MEASURE_WITH_UNIT( LENGTH_MEASURE( 1.00000000000000 ), #74 );
#62 = DIMENSIONAL_EXPONENTS( 1.00000000000000, 0.000000000000000, 0.000000000000000, 0.000000000000000, 0.000000000000000, 0.000000000000000, 0.000000000000000 );
#64 = DIMENSIONAL_EXPONENTS( 0.000000000000000, 0.000000000000000, 0.000000000000000, 0.000000000000000, 0.000000000000000, 0.000000000000000, 0.000000000000000 );
#70 = CLOSED_SHELL( '', ( #75, #76, #77, #78, #79, #80, #81, #82, #83, #84 ) );
#71 = CARTESIAN_POINT( '', ( 0.000000000000000, 0.000000000000000, 0.000000000000000 ) );
#72 = DIRECTION( '', ( 0.000000000000000, 0.000000000000000, 1.00000000000000 ) );
#73 = DIRECTION( '', ( 1.00000000000000, 0.000000000000000, 0.000000000000000 ) );
#74 =  ( LENGTH_UNIT(  )NAMED_UNIT( #62 )SI_UNIT( .MILLI., .METRE. ) );
#75 = ADVANCED_FACE( '', ( #86, #87 ), #88, .F. );
#76 = ADVANCED_FACE( '', ( #89, #90 ), #91, .F. );
#77 = ADVANCED_FACE( '', ( #92, #93 ), #94, .F. );
#78 = ADVANCED_FACE( '', ( #95, #96 ), #97, .F. );
#79 = ADVANCED_FACE( '', ( #98, #99 ), #100, .T. );
#80 = ADVANCED_FACE( '', ( #101, #102, #103 ), #104, .T. );
#81 = ADVANCED_FACE( '', ( #105, #106 ), #107, .F. );
#82 = ADVANCED_FACE( '', ( #108, #109 ), #110, .T. );
#83 = ADVANCED_FACE( '', ( #111 ), #112, .T. );
#84 = ADVANCED_FACE( '', ( #113, #114 ), #115, .T. );
#86 = FACE_BOUND( '', #116, .T. );
#87 = FACE_OUTER_BOUND( '', #117, .T. );
#88 = CONICAL_SURFACE( '', #118, 6.50000000000000, 0.652846631100000 );
#89 = FACE_OUTER_BOUND( '', #119, .T. );
#90 = FACE_BOUND( '', #120, .T. );
#91 = PLANE( '', #121 );
#92 = FACE_OUTER_BOUND( '', #122, .T. );
#93 = FACE_OUTER_BOUND( '', #123, .T. );
#94 = CYLINDRICAL_SURFACE( '', #124, 6.50000000000000 );
#95 = FACE_BOUND( '', #125, .T. );
#96 = FACE_OUTER_BOUND( '', #126, .T. );
#97 = PLANE( '', #127 );
#98 = FACE_OUTER_BOUND( '', #128, .T. );
#99 = FACE_OUTER_BOUND( '', #129, .T. );
#100 = CYLINDRICAL_SURFACE( '', #130, 8.00000000000000 );
#101 = FACE_BOUND( '', #131, .T. );
#102 = FACE_OUTER_BOUND( '', #132, .T. );
#103 = FACE_OUTER_BOUND( '', #133, .T. );
#104 = TOROIDAL_SURFACE( '', #134, 9.00000000000000, 1.00000000000000 );
#105 = FACE_BOUND( '', #135, .T. );
#106 = FACE_OUTER_BOUND( '', #136, .T. );
#107 = PLANE( '', #137 );
#108 = FACE_OUTER_BOUND( '', #138, .T. );
#109 = FACE_OUTER_BOUND( '', #139, .T. );
#110 = CYLINDRICAL_SURFACE( '', #140, 3.50000000000000 );
#111 = FACE_OUTER_BOUND( '', #141, .T. );
#112 = PLANE( '', #142 );
#113 = FACE_BOUND( '', #143, .T. );
#114 = FACE_OUTER_BOUND( '', #144, .T. );
#115 = CONICAL_SURFACE( '', #145, 8.00000000000000, 0.339292614500000 );
#116 = VERTEX_LOOP( '', #146 );
#117 = EDGE_LOOP( '', ( #147 ) );
#118 = AXIS2_PLACEMENT_3D( '', #148, #149, #150 );
#119 = EDGE_LOOP( '', ( #151 ) );
#120 = EDGE_LOOP( '', ( #152 ) );
#121 = AXIS2_PLACEMENT_3D( '', #153, #154, #155 );
#122 = EDGE_LOOP( '', ( #156 ) );
#123 = EDGE_LOOP( '', ( #157 ) );
#124 = AXIS2_PLACEMENT_3D( '', #158, #159, #160 );
#125 = EDGE_LOOP( '', ( #161 ) );
#126 = EDGE_LOOP( '', ( #162 ) );
#127 = AXIS2_PLACEMENT_3D( '', #163, #164, #165 );
#128 = EDGE_LOOP( '', ( #166 ) );
#129 = EDGE_LOOP( '', ( #167 ) );
#130 = AXIS2_PLACEMENT_3D( '', #168, #169, #170 );
#131 = VERTEX_LOOP( '', #171 );
#132 = EDGE_LOOP( '', ( #172 ) );
#133 = EDGE_LOOP( '', ( #173 ) );
#134 = AXIS2_PLACEMENT_3D( '', #174, #175, #176 );
#135 = EDGE_LOOP( '', ( #177 ) );
#136 = EDGE_LOOP( '', ( #178 ) );
#137 = AXIS2_PLACEMENT_3D( '', #179, #180, #181 );
#138 = EDGE_LOOP( '', ( #182 ) );
#139 = EDGE_LOOP( '', ( #183 ) );
#140 = AXIS2_PLACEMENT_3D( '', #184, #185, #186 );
#141 = EDGE_LOOP( '', ( #187 ) );
#142 = AXIS2_PLACEMENT_3D( '', #188, #189, #190 );
#143 = EDGE_LOOP( '', ( #191 ) );
#144 = EDGE_LOOP( '', ( #192 ) );
#145 = AXIS2_PLACEMENT_3D( '', #193, #194, #195 );
#146 = VERTEX_POINT( '', #196 );
#147 = ORIENTED_EDGE( '', *, *, #197, .F. );
#148 = CARTESIAN_POINT( '', ( 3.00000000000000, 0.000000000000000, 0.000000000000000 ) );
#149 = DIRECTION( '', ( -1.00000000000000, 0.000000000000000, -0.000000000000000 ) );
#150 = DIRECTION( '', ( 0.000000000000000, 0.000000000000000, 1.00000000000000 ) );
#151 = ORIENTED_EDGE( '', *, *, #198, .F. );
#152 = ORIENTED_EDGE( '', *, *, #199, .T. );
#153 = CARTESIAN_POINT( '', ( -14.5000000000000, 0.000000000000000, 0.000000000000000 ) );
#154 = DIRECTION( '', ( 1.00000000000000, 0.000000000000000, -0.000000000000000 ) );
#155 = DIRECTION( '', ( -0.000000000000000, 0.000000000000000, -1.00000000000000 ) );
#156 = ORIENTED_EDGE( '', *, *, #197, .T. );
#157 = ORIENTED_EDGE( '', *, *, #199, .F. );
#158 = CARTESIAN_POINT( '', ( 11.5000000000000, 0.000000000000000, 0.000000000000000 ) );
#159 = DIRECTION( '', ( -1.00000000000000, -0.000000000000000, 0.000000000000000 ) );
#160 = DIRECTION( '', ( -0.000000000000000, 0.000000000000000, -1.00000000000000 ) );
#161 = ORIENTED_EDGE( '', *, *, #200, .T. );
#162 = ORIENTED_EDGE( '', *, *, #201, .T. );
#163 = CARTESIAN_POINT( '', ( 11.5000000000000, 8.00000000000000, 0.000000000000000 ) );
#164 = DIRECTION( '', ( -1.00000000000000, 0.000000000000000, 0.000000000000000 ) );
#165 = DIRECTION( '', ( 0.000000000000000, 0.000000000000000, 1.00000000000000 ) );
#166 = ORIENTED_EDGE( '', *, *, #202, .F. );
#167 = ORIENTED_EDGE( '', *, *, #203, .F. );
#168 = CARTESIAN_POINT( '', ( 11.5000000000000, 0.000000000000000, 0.000000000000000 ) );
#169 = DIRECTION( '', ( -1.00000000000000, -0.000000000000000, 0.000000000000000 ) );
#170 = DIRECTION( '', ( -0.000000000000000, 0.000000000000000, -1.00000000000000 ) );
#171 = VERTEX_POINT( '', #204 );
#172 = ORIENTED_EDGE( '', *, *, #198, .T. );
#173 = ORIENTED_EDGE( '', *, *, #205, .F. );
#174 = CARTESIAN_POINT( '', ( -13.5000000000000, 0.000000000000000, 0.000000000000000 ) );
#175 = DIRECTION( '', ( 1.00000000000000, 0.000000000000000, -0.000000000000000 ) );
#176 = DIRECTION( '', ( -0.000000000000000, 0.000000000000000, -1.00000000000000 ) );
#177 = ORIENTED_EDGE( '', *, *, #203, .T. );
#178 = ORIENTED_EDGE( '', *, *, #205, .T. );
#179 = CARTESIAN_POINT( '', ( -12.5000000000000, 9.00000000000000, 0.000000000000000 ) );
#180 = DIRECTION( '', ( -1.00000000000000, 0.000000000000000, 0.000000000000000 ) );
#181 = DIRECTION( '', ( 0.000000000000000, 0.000000000000000, 1.00000000000000 ) );
#182 = ORIENTED_EDGE( '', *, *, #206, .F. );
#183 = ORIENTED_EDGE( '', *, *, #200, .F. );
#184 = CARTESIAN_POINT( '', ( -14.5000000000000, 0.000000000000000, 0.000000000000000 ) );
#185 = DIRECTION( '', ( -1.00000000000000, -0.000000000000000, -0.000000000000000 ) );
#186 = DIRECTION( '', ( 0.000000000000000, 0.000000000000000, -1.00000000000000 ) );
#187 = ORIENTED_EDGE( '', *, *, #206, .T. );
#188 = CARTESIAN_POINT( '', ( 14.5000000000000, 0.000000000000000, 0.000000000000000 ) );
#189 = DIRECTION( '', ( 1.00000000000000, 0.000000000000000, 0.000000000000000 ) );
#190 = DIRECTION( '', ( 0.000000000000000, 0.000000000000000, -1.00000000000000 ) );
#191 = ORIENTED_EDGE( '', *, *, #201, .F. );
#192 = ORIENTED_EDGE( '', *, *, #202, .T. );
#193 = CARTESIAN_POINT( '', ( 3.00000000000000, 0.000000000000000, 0.000000000000000 ) );
#194 = DIRECTION( '', ( -1.00000000000000, 0.000000000000000, -0.000000000000000 ) );
#195 = DIRECTION( '', ( 0.000000000000000, 0.000000000000000, 1.00000000000000 ) );
#196 = CARTESIAN_POINT( '', ( 11.5000000000000, 8.67361737988404E-16, 0.000000000000000 ) );
#197 = EDGE_CURVE( '', #207, #207, #208, .T. );
#198 = EDGE_CURVE( '', #209, #209, #210, .T. );
#199 = EDGE_CURVE( '', #211, #211, #212, .T. );
#200 = EDGE_CURVE( '', #213, #213, #214, .T. );
#201 = EDGE_CURVE( '', #215, #215, #216, .T. );
#202 = EDGE_CURVE( '', #217, #217, #218, .T. );
#203 = EDGE_CURVE( '', #219, #219, #220, .T. );
#204 = CARTESIAN_POINT( '', ( -13.5000000000000, 0.000000000000000, -10.0000000000000 ) );
#205 = EDGE_CURVE( '', #221, #221, #222, .T. );
#206 = EDGE_CURVE( '', #223, #223, #224, .T. );
#207 = VERTEX_POINT( '', #225 );
#208 = CIRCLE( '', #226, 6.50000000000000 );
#209 = VERTEX_POINT( '', #227 );
#210 = CIRCLE( '', #228, 9.00000000000000 );
#211 = VERTEX_POINT( '', #229 );
#212 = CIRCLE( '', #230, 6.50000000000000 );
#213 = VERTEX_POINT( '', #231 );
#214 = CIRCLE( '', #232, 3.50000000000000 );
#215 = VERTEX_POINT( '', #233 );
#216 = CIRCLE( '', #234, 5.00000000000000 );
#217 = VERTEX_POINT( '', #235 );
#218 = CIRCLE( '', #236, 8.00000000000000 );
#219 = VERTEX_POINT( '', #237 );
#220 = CIRCLE( '', #238, 8.00000000000000 );
#221 = VERTEX_POINT( '', #239 );
#222 = CIRCLE( '', #240, 9.00000000000000 );
#223 = VERTEX_POINT( '', #241 );
#224 = CIRCLE( '', #242, 3.50000000000000 );
#225 = CARTESIAN_POINT( '', ( 3.00000000000000, 0.000000000000000, -6.50000000000000 ) );
#226 = AXIS2_PLACEMENT_3D( '', #243, #244, #245 );
#227 = CARTESIAN_POINT( '', ( -14.5000000000000, 0.000000000000000, -9.00000000000000 ) );
#228 = AXIS2_PLACEMENT_3D( '', #246, #247, #248 );
#229 = CARTESIAN_POINT( '', ( -14.5000000000000, 0.000000000000000, -6.49999999999999 ) );
#230 = AXIS2_PLACEMENT_3D( '', #249, #250, #251 );
#231 = CARTESIAN_POINT( '', ( 11.5000000000000, 0.000000000000000, 3.50000000000000 ) );
#232 = AXIS2_PLACEMENT_3D( '', #252, #253, #254 );
#233 = CARTESIAN_POINT( '', ( 11.5000000000000, 0.000000000000000, -5.00000000000001 ) );
#234 = AXIS2_PLACEMENT_3D( '', #255, #256, #257 );
#235 = CARTESIAN_POINT( '', ( 3.00000000000000, 0.000000000000000, -7.99999999999999 ) );
#236 = AXIS2_PLACEMENT_3D( '', #258, #259, #260 );
#237 = CARTESIAN_POINT( '', ( -12.5000000000000, 0.000000000000000, 8.00000000000000 ) );
#238 = AXIS2_PLACEMENT_3D( '', #261, #262, #263 );
#239 = CARTESIAN_POINT( '', ( -12.5000000000000, 0.000000000000000, -9.00000000000000 ) );
#240 = AXIS2_PLACEMENT_3D( '', #264, #265, #266 );
#241 = CARTESIAN_POINT( '', ( 14.5000000000000, 0.000000000000000, -3.50000000000000 ) );
#242 = AXIS2_PLACEMENT_3D( '', #267, #268, #269 );
#243 = CARTESIAN_POINT( '', ( 3.00000000000000, 0.000000000000000, 0.000000000000000 ) );
#244 = DIRECTION( '', ( 1.00000000000000, 0.000000000000000, -0.000000000000000 ) );
#245 = DIRECTION( '', ( -0.000000000000000, 0.000000000000000, -1.00000000000000 ) );
#246 = CARTESIAN_POINT( '', ( -14.5000000000000, 0.000000000000000, 0.000000000000000 ) );
#247 = DIRECTION( '', ( 1.00000000000000, 0.000000000000000, -0.000000000000000 ) );
#248 = DIRECTION( '', ( -0.000000000000000, 0.000000000000000, -1.00000000000000 ) );
#249 = CARTESIAN_POINT( '', ( -14.5000000000000, 0.000000000000000, 0.000000000000000 ) );
#250 = DIRECTION( '', ( 1.00000000000000, 0.000000000000000, -0.000000000000000 ) );
#251 = DIRECTION( '', ( -0.000000000000000, 0.000000000000000, -1.00000000000000 ) );
#252 = CARTESIAN_POINT( '', ( 11.5000000000000, 0.000000000000000, 0.000000000000000 ) );
#253 = DIRECTION( '', ( -1.00000000000000, 0.000000000000000, 0.000000000000000 ) );
#254 = DIRECTION( '', ( 0.000000000000000, 0.000000000000000, 1.00000000000000 ) );
#255 = CARTESIAN_POINT( '', ( 11.5000000000000, 0.000000000000000, 0.000000000000000 ) );
#256 = DIRECTION( '', ( 1.00000000000000, 0.000000000000000, -0.000000000000000 ) );
#257 = DIRECTION( '', ( -0.000000000000000, 0.000000000000000, -1.00000000000000 ) );
#258 = CARTESIAN_POINT( '', ( 3.00000000000000, 0.000000000000000, 0.000000000000000 ) );
#259 = DIRECTION( '', ( 1.00000000000000, 0.000000000000000, -0.000000000000000 ) );
#260 = DIRECTION( '', ( -0.000000000000000, 0.000000000000000, -1.00000000000000 ) );
#261 = CARTESIAN_POINT( '', ( -12.5000000000000, 0.000000000000000, 0.000000000000000 ) );
#262 = DIRECTION( '', ( -1.00000000000000, 0.000000000000000, 0.000000000000000 ) );
#263 = DIRECTION( '', ( 0.000000000000000, 0.000000000000000, 1.00000000000000 ) );
#264 = CARTESIAN_POINT( '', ( -12.5000000000000, 0.000000000000000, 0.000000000000000 ) );
#265 = DIRECTION( '', ( 1.00000000000000, 0.000000000000000, -0.000000000000000 ) );
#266 = DIRECTION( '', ( -0.000000000000000, 0.000000000000000, -1.00000000000000 ) );
#267 = CARTESIAN_POINT( '', ( 14.5000000000000, 0.000000000000000, 0.000000000000000 ) );
#268 = DIRECTION( '', ( 1.00000000000000, 0.000000000000000, 0.000000000000000 ) );
#269 = DIRECTION( '', ( 0.000000000000000, 0.000000000000000, -1.00000000000000 ) );
ENDSEC;
END-ISO-10303-21;
