ISO-10303-21;
HEADER;
FILE_DESCRIPTION( ( 'STEP AP203' ), '1' );
FILE_NAME( 'p:/temp/worker_104/temp/exporttempdir_2872_528_NeCh6/format_0/FLEXA WIC-P 0512.100.021.stp', '2020-03-10T14:34:17', ( '' ), ( '' ), ' ', 'PARTsolutions', ' ' );
FILE_SCHEMA( ( 'CONFIG_CONTROL_DESIGN' ) );
ENDSEC;
DATA;
#1 = DESIGN_CONTEXT( '', #27, 'design' );
#2 = APPLICATION_PROTOCOL_DEFINITION( 'international standard', 'config_control_design', 1994, #27 );
#3 = PRODUCT_CATEGORY_RELATIONSHIP( 'NONE', 'NONE', #28, #29 );
#4 = DATE_AND_TIME( #30, #31 );
#5 = DATE_TIME_ROLE( 'creation_date' );
#6 = DATE_TIME_ROLE( 'classification_date' );
#7 = PERSON_AND_ORGANIZATION_ROLE( 'creator' );
#8 = PERSON_AND_ORGANIZATION_ROLE( 'design_supplier' );
#9 = PERSON_AND_ORGANIZATION_ROLE( 'classification_officer' );
#10 = PERSON_AND_ORGANIZATION_ROLE( 'design_owner' );
#11 = APPROVAL_PERSON_ORGANIZATION( #32, #33, #34 );
#12 = APPROVAL_DATE_TIME( #4, #33 );
#13 = CC_DESIGN_APPROVAL( #33, ( #35, #36, #37 ) );
#14 = CC_DESIGN_DATE_AND_TIME_ASSIGNMENT( #4, #5, ( #37 ) );
#15 = CC_DESIGN_DATE_AND_TIME_ASSIGNMENT( #4, #6, ( #35 ) );
#16 = CC_DESIGN_PERSON_AND_ORGANIZATION_ASSIGNMENT( #32, #10, ( #38 ) );
#17 = CC_DESIGN_PERSON_AND_ORGANIZATION_ASSIGNMENT( #32, #7, ( #37 ) );
#18 = CC_DESIGN_PERSON_AND_ORGANIZATION_ASSIGNMENT( #32, #7, ( #36 ) );
#19 = CC_DESIGN_PERSON_AND_ORGANIZATION_ASSIGNMENT( #32, #8, ( #36 ) );
#20 = CC_DESIGN_SECURITY_CLASSIFICATION( #35, ( #36 ) );
#21 = CC_DESIGN_PERSON_AND_ORGANIZATION_ASSIGNMENT( #32, #9, ( #35 ) );
#22 = SHAPE_DEFINITION_REPRESENTATION( #39, #40 );
#23 =  ( GEOMETRIC_REPRESENTATION_CONTEXT( 3 )GLOBAL_UNCERTAINTY_ASSIGNED_CONTEXT( ( #43 ) )GLOBAL_UNIT_ASSIGNED_CONTEXT( ( #45, #46, #47 ) )REPRESENTATION_CONTEXT( 'NONE', 'WORKSPACE' ) );
#27 = APPLICATION_CONTEXT( 'configuration controlled 3D designs of mechanical parts and assemblies' );
#28 = PRODUCT_CATEGORY( 'part', 'NONE' );
#29 = PRODUCT_RELATED_PRODUCT_CATEGORY( 'detail', ' ', ( #38 ) );
#30 = CALENDAR_DATE( 2020, 10, 2 );
#31 = LOCAL_TIME( 15, 34, 17.0000000000000, #49 );
#32 = PERSON_AND_ORGANIZATION( #50, #51 );
#33 = APPROVAL( #52, 'SOLID MODEL' );
#34 = APPROVAL_ROLE( 'APPROVED' );
#35 = SECURITY_CLASSIFICATION( '', '', #53 );
#36 = PRODUCT_DEFINITION_FORMATION_WITH_SPECIFIED_SOURCE( ' ', 'NONE', #38, .NOT_KNOWN. );
#37 = PRODUCT_DEFINITION( 'NONE', 'NONE', #36, #1 );
#38 = PRODUCT( '_FLEXA WIC-P 0512.100.021', '_FLEXA WIC-P 0512.100.021', 'PART-_FLEXA WIC-P 0512.100.021-DESC', ( #54 ) );
#39 = PRODUCT_DEFINITION_SHAPE( 'NONE', 'NONE', #37 );
#40 = ADVANCED_BREP_SHAPE_REPRESENTATION( '_FLEXA WIC-P 0512.100.021', ( #55, #56 ), #23 );
#43 = UNCERTAINTY_MEASURE_WITH_UNIT( LENGTH_MEASURE( 0.00100000000000000 ), #45, '', '' );
#45 =  ( CONVERSION_BASED_UNIT( 'MILLIMETRE', #59 )LENGTH_UNIT(  )NAMED_UNIT( #62 ) );
#46 =  ( NAMED_UNIT( #64 )PLANE_ANGLE_UNIT(  )SI_UNIT( $, .RADIAN. ) );
#47 =  ( NAMED_UNIT( #64 )SI_UNIT( $, .STERADIAN. )SOLID_ANGLE_UNIT(  ) );
#49 = COORDINATED_UNIVERSAL_TIME_OFFSET( 1, 0, .AHEAD. );
#50 = PERSON( '', 'UNSPECIFIED', $, $, $, $ );
#51 = ORGANIZATION( 'UNSPECIFIED', 'UNSPECIFIED', 'UNSPECIFIED' );
#52 = APPROVAL_STATUS( 'approved' );
#53 = SECURITY_CLASSIFICATION_LEVEL( 'unclassified' );
#54 = MECHANICAL_CONTEXT( '', #27, 'mechanical' );
#55 = MANIFOLD_SOLID_BREP( '_FLEXA WIC-P 0512.100.021', #70 );
#56 = AXIS2_PLACEMENT_3D( '', #71, #72, #73 );
#59 = LENGTH_MEASURE_WITH_UNIT( LENGTH_MEASURE( 1.00000000000000 ), #74 );
#62 = DIMENSIONAL_EXPONENTS( 1.00000000000000, 0.000000000000000, 0.000000000000000, 0.000000000000000, 0.000000000000000, 0.000000000000000, 0.000000000000000 );
#64 = DIMENSIONAL_EXPONENTS( 0.000000000000000, 0.000000000000000, 0.000000000000000, 0.000000000000000, 0.000000000000000, 0.000000000000000, 0.000000000000000 );
#70 = CLOSED_SHELL( '', ( #75, #76, #77, #78, #79, #80, #81, #82, #83, #84, #85, #86, #87, #88, #89, #90, #91 ) );
#71 = CARTESIAN_POINT( '', ( 0.000000000000000, 0.000000000000000, 0.000000000000000 ) );
#72 = DIRECTION( '', ( 0.000000000000000, 0.000000000000000, 1.00000000000000 ) );
#73 = DIRECTION( '', ( 1.00000000000000, 0.000000000000000, 0.000000000000000 ) );
#74 =  ( LENGTH_UNIT(  )NAMED_UNIT( #62 )SI_UNIT( .MILLI., .METRE. ) );
#75 = ADVANCED_FACE( '', ( #93 ), #94, .T. );
#76 = ADVANCED_FACE( '', ( #95, #96 ), #97, .T. );
#77 = ADVANCED_FACE( '', ( #98 ), #99, .T. );
#78 = ADVANCED_FACE( '', ( #100, #101 ), #102, .T. );
#79 = ADVANCED_FACE( '', ( #103, #104 ), #105, .T. );
#80 = ADVANCED_FACE( '', ( #106, #107 ), #108, .F. );
#81 = ADVANCED_FACE( '', ( #109, #110 ), #111, .T. );
#82 = ADVANCED_FACE( '', ( #112, #113 ), #114, .T. );
#83 = ADVANCED_FACE( '', ( #115, #116 ), #117, .F. );
#84 = ADVANCED_FACE( '', ( #118, #119 ), #120, .F. );
#85 = ADVANCED_FACE( '', ( #121 ), #122, .F. );
#86 = ADVANCED_FACE( '', ( #123, #124 ), #125, .T. );
#87 = ADVANCED_FACE( '', ( #126, #127 ), #128, .F. );
#88 = ADVANCED_FACE( '', ( #129, #130, #131 ), #132, .T. );
#89 = ADVANCED_FACE( '', ( #133, #134 ), #135, .F. );
#90 = ADVANCED_FACE( '', ( #136 ), #137, .T. );
#91 = ADVANCED_FACE( '', ( #138, #139 ), #140, .T. );
#93 = FACE_OUTER_BOUND( '', #141, .T. );
#94 = CONICAL_SURFACE( '', #142, 15.5000000000000, 0.785398163400000 );
#95 = FACE_BOUND( '', #143, .T. );
#96 = FACE_OUTER_BOUND( '', #144, .T. );
#97 = PLANE( '', #145 );
#98 = FACE_OUTER_BOUND( '', #146, .T. );
#99 = SPHERICAL_SURFACE( '', #147, 15.5000000000000 );
#100 = FACE_OUTER_BOUND( '', #148, .T. );
#101 = FACE_OUTER_BOUND( '', #149, .T. );
#102 = CYLINDRICAL_SURFACE( '', #150, 17.0000000000000 );
#103 = FACE_BOUND( '', #151, .T. );
#104 = FACE_OUTER_BOUND( '', #152, .T. );
#105 = PLANE( '', #153 );
#106 = FACE_OUTER_BOUND( '', #154, .T. );
#107 = FACE_OUTER_BOUND( '', #155, .T. );
#108 = CYLINDRICAL_SURFACE( '', #156, 13.7700000000000 );
#109 = FACE_OUTER_BOUND( '', #157, .T. );
#110 = FACE_BOUND( '', #158, .T. );
#111 = CONICAL_SURFACE( '', #159, 13.1500000000000, 0.785398163400000 );
#112 = FACE_OUTER_BOUND( '', #160, .T. );
#113 = FACE_OUTER_BOUND( '', #161, .T. );
#114 = CYLINDRICAL_SURFACE( '', #162, 14.1500000000000 );
#115 = FACE_OUTER_BOUND( '', #163, .T. );
#116 = FACE_OUTER_BOUND( '', #164, .T. );
#117 = CYLINDRICAL_SURFACE( '', #165, 12.0000000000000 );
#118 = FACE_OUTER_BOUND( '', #166, .T. );
#119 = FACE_OUTER_BOUND( '', #167, .T. );
#120 = CYLINDRICAL_SURFACE( '', #168, 12.0000000000000 );
#121 = FACE_OUTER_BOUND( '', #169, .T. );
#122 = SPHERICAL_SURFACE( '', #170, 12.0000000000000 );
#123 = FACE_OUTER_BOUND( '', #171, .T. );
#124 = FACE_BOUND( '', #172, .T. );
#125 = PLANE( '', #173 );
#126 = FACE_OUTER_BOUND( '', #174, .T. );
#127 = FACE_BOUND( '', #175, .T. );
#128 = CONICAL_SURFACE( '', #176, 13.3900000000000, 0.785398163400000 );
#129 = FACE_BOUND( '', #177, .T. );
#130 = FACE_OUTER_BOUND( '', #178, .T. );
#131 = FACE_OUTER_BOUND( '', #179, .T. );
#132 = TOROIDAL_SURFACE( '', #180, 15.1500000000000, 1.00000000000000 );
#133 = FACE_OUTER_BOUND( '', #181, .T. );
#134 = FACE_BOUND( '', #182, .T. );
#135 = PLANE( '', #183 );
#136 = FACE_OUTER_BOUND( '', #184, .T. );
#137 = CYLINDRICAL_SURFACE( '', #185, 15.5000000000000 );
#138 = FACE_OUTER_BOUND( '', #186, .T. );
#139 = FACE_OUTER_BOUND( '', #187, .T. );
#140 = CYLINDRICAL_SURFACE( '', #188, 15.5000000000000 );
#141 = EDGE_LOOP( '', ( #189, #190, #191, #192 ) );
#142 = AXIS2_PLACEMENT_3D( '', #193, #194, #195 );
#143 = EDGE_LOOP( '', ( #196 ) );
#144 = EDGE_LOOP( '', ( #197 ) );
#145 = AXIS2_PLACEMENT_3D( '', #198, #199, #200 );
#146 = EDGE_LOOP( '', ( #201, #202 ) );
#147 = AXIS2_PLACEMENT_3D( '', #203, #204, #205 );
#148 = EDGE_LOOP( '', ( #206 ) );
#149 = EDGE_LOOP( '', ( #207 ) );
#150 = AXIS2_PLACEMENT_3D( '', #208, #209, #210 );
#151 = EDGE_LOOP( '', ( #211 ) );
#152 = EDGE_LOOP( '', ( #212 ) );
#153 = AXIS2_PLACEMENT_3D( '', #213, #214, #215 );
#154 = EDGE_LOOP( '', ( #216 ) );
#155 = EDGE_LOOP( '', ( #217 ) );
#156 = AXIS2_PLACEMENT_3D( '', #218, #219, #220 );
#157 = EDGE_LOOP( '', ( #221 ) );
#158 = EDGE_LOOP( '', ( #222 ) );
#159 = AXIS2_PLACEMENT_3D( '', #223, #224, #225 );
#160 = EDGE_LOOP( '', ( #226 ) );
#161 = EDGE_LOOP( '', ( #227 ) );
#162 = AXIS2_PLACEMENT_3D( '', #228, #229, #230 );
#163 = EDGE_LOOP( '', ( #231, #232 ) );
#164 = EDGE_LOOP( '', ( #233 ) );
#165 = AXIS2_PLACEMENT_3D( '', #234, #235, #236 );
#166 = EDGE_LOOP( '', ( #237, #238 ) );
#167 = EDGE_LOOP( '', ( #239 ) );
#168 = AXIS2_PLACEMENT_3D( '', #240, #241, #242 );
#169 = EDGE_LOOP( '', ( #243, #244 ) );
#170 = AXIS2_PLACEMENT_3D( '', #245, #246, #247 );
#171 = EDGE_LOOP( '', ( #248 ) );
#172 = EDGE_LOOP( '', ( #249 ) );
#173 = AXIS2_PLACEMENT_3D( '', #250, #251, #252 );
#174 = EDGE_LOOP( '', ( #253 ) );
#175 = EDGE_LOOP( '', ( #254 ) );
#176 = AXIS2_PLACEMENT_3D( '', #255, #256, #257 );
#177 = VERTEX_LOOP( '', #258 );
#178 = EDGE_LOOP( '', ( #259 ) );
#179 = EDGE_LOOP( '', ( #260 ) );
#180 = AXIS2_PLACEMENT_3D( '', #261, #262, #263 );
#181 = EDGE_LOOP( '', ( #264 ) );
#182 = EDGE_LOOP( '', ( #265 ) );
#183 = AXIS2_PLACEMENT_3D( '', #266, #267, #268 );
#184 = EDGE_LOOP( '', ( #269, #270, #271, #272 ) );
#185 = AXIS2_PLACEMENT_3D( '', #273, #274, #275 );
#186 = EDGE_LOOP( '', ( #276, #277, #278, #279, #280 ) );
#187 = EDGE_LOOP( '', ( #281 ) );
#188 = AXIS2_PLACEMENT_3D( '', #282, #283, #284 );
#189 = ORIENTED_EDGE( '', *, *, #285, .F. );
#190 = ORIENTED_EDGE( '', *, *, #286, .F. );
#191 = ORIENTED_EDGE( '', *, *, #287, .F. );
#192 = ORIENTED_EDGE( '', *, *, #288, .T. );
#193 = CARTESIAN_POINT( '', ( 0.000000000000000, -6.50000000000000, 0.000000000000000 ) );
#194 = DIRECTION( '', ( 0.000000000000000, -1.00000000000000, -0.000000000000000 ) );
#195 = DIRECTION( '', ( 0.000000000000000, 0.000000000000000, -1.00000000000000 ) );
#196 = ORIENTED_EDGE( '', *, *, #289, .F. );
#197 = ORIENTED_EDGE( '', *, *, #290, .T. );
#198 = CARTESIAN_POINT( '', ( 29.5000000000000, 7.50000000000000, 0.000000000000000 ) );
#199 = DIRECTION( '', ( 1.00000000000000, 0.000000000000000, 0.000000000000000 ) );
#200 = DIRECTION( '', ( 0.000000000000000, 0.000000000000000, -1.00000000000000 ) );
#201 = ORIENTED_EDGE( '', *, *, #291, .T. );
#202 = ORIENTED_EDGE( '', *, *, #292, .T. );
#203 = CARTESIAN_POINT( '', ( -5.20417042793042E-15, 7.50000000000001, 0.000000000000000 ) );
#204 = DIRECTION( '', ( 0.000000000000000, 1.00000000000000, 0.000000000000000 ) );
#205 = DIRECTION( '', ( 1.00000000000000, 0.000000000000000, 0.000000000000000 ) );
#206 = ORIENTED_EDGE( '', *, *, #293, .T. );
#207 = ORIENTED_EDGE( '', *, *, #288, .F. );
#208 = CARTESIAN_POINT( '', ( 0.000000000000000, 50.0000000000000, 0.000000000000000 ) );
#209 = DIRECTION( '', ( 0.000000000000000, -1.00000000000000, -0.000000000000000 ) );
#210 = DIRECTION( '', ( 0.000000000000000, 0.000000000000000, 1.00000000000000 ) );
#211 = ORIENTED_EDGE( '', *, *, #294, .T. );
#212 = ORIENTED_EDGE( '', *, *, #293, .F. );
#213 = CARTESIAN_POINT( '', ( -17.0000000000000, -10.0000000000000, 0.000000000000000 ) );
#214 = DIRECTION( '', ( 0.000000000000000, -1.00000000000000, 0.000000000000000 ) );
#215 = DIRECTION( '', ( 0.000000000000000, 0.000000000000000, -1.00000000000000 ) );
#216 = ORIENTED_EDGE( '', *, *, #295, .T. );
#217 = ORIENTED_EDGE( '', *, *, #296, .F. );
#218 = CARTESIAN_POINT( '', ( 29.5000000000000, 7.50000000000000, 0.000000000000000 ) );
#219 = DIRECTION( '', ( -1.00000000000000, -0.000000000000000, 0.000000000000000 ) );
#220 = DIRECTION( '', ( -0.000000000000000, 0.000000000000000, -1.00000000000000 ) );
#221 = ORIENTED_EDGE( '', *, *, #297, .F. );
#222 = ORIENTED_EDGE( '', *, *, #298, .T. );
#223 = CARTESIAN_POINT( '', ( 0.000000000000000, -23.0000000000000, 0.000000000000000 ) );
#224 = DIRECTION( '', ( -0.000000000000000, 1.00000000000000, -0.000000000000000 ) );
#225 = DIRECTION( '', ( 0.000000000000000, 0.000000000000000, 1.00000000000000 ) );
#226 = ORIENTED_EDGE( '', *, *, #299, .F. );
#227 = ORIENTED_EDGE( '', *, *, #297, .T. );
#228 = CARTESIAN_POINT( '', ( 0.000000000000000, 50.0000000000000, 0.000000000000000 ) );
#229 = DIRECTION( '', ( 0.000000000000000, -1.00000000000000, -0.000000000000000 ) );
#230 = DIRECTION( '', ( 0.000000000000000, 0.000000000000000, 1.00000000000000 ) );
#231 = ORIENTED_EDGE( '', *, *, #300, .F. );
#232 = ORIENTED_EDGE( '', *, *, #301, .T. );
#233 = ORIENTED_EDGE( '', *, *, #302, .T. );
#234 = CARTESIAN_POINT( '', ( 45.0000000000000, 7.50000000000000, 0.000000000000000 ) );
#235 = DIRECTION( '', ( 1.00000000000000, -0.000000000000000, -0.000000000000000 ) );
#236 = DIRECTION( '', ( 0.000000000000000, 0.000000000000000, 1.00000000000000 ) );
#237 = ORIENTED_EDGE( '', *, *, #303, .T. );
#238 = ORIENTED_EDGE( '', *, *, #301, .F. );
#239 = ORIENTED_EDGE( '', *, *, #304, .F. );
#240 = CARTESIAN_POINT( '', ( 0.000000000000000, 7.50000000000000, 0.000000000000000 ) );
#241 = DIRECTION( '', ( -0.000000000000000, 1.00000000000000, 0.000000000000000 ) );
#242 = DIRECTION( '', ( 0.000000000000000, 0.000000000000000, -1.00000000000000 ) );
#243 = ORIENTED_EDGE( '', *, *, #300, .T. );
#244 = ORIENTED_EDGE( '', *, *, #303, .F. );
#245 = CARTESIAN_POINT( '', ( 0.000000000000000, 7.50000000000000, 0.000000000000000 ) );
#246 = DIRECTION( '', ( 0.000000000000000, 0.000000000000000, -1.00000000000000 ) );
#247 = DIRECTION( '', ( 0.000000000000000, -1.00000000000000, 0.000000000000000 ) );
#248 = ORIENTED_EDGE( '', *, *, #296, .T. );
#249 = ORIENTED_EDGE( '', *, *, #302, .F. );
#250 = CARTESIAN_POINT( '', ( 16.5000000000000, 7.50000000000000, 0.000000000000000 ) );
#251 = DIRECTION( '', ( 1.00000000000000, 0.000000000000000, -0.000000000000000 ) );
#252 = DIRECTION( '', ( -0.000000000000000, 0.000000000000000, -1.00000000000000 ) );
#253 = ORIENTED_EDGE( '', *, *, #289, .T. );
#254 = ORIENTED_EDGE( '', *, *, #295, .F. );
#255 = CARTESIAN_POINT( '', ( 28.5000000000000, 7.50000000000000, 0.000000000000000 ) );
#256 = DIRECTION( '', ( 1.00000000000000, -0.000000000000000, -0.000000000000000 ) );
#257 = DIRECTION( '', ( -0.000000000000000, 0.000000000000000, -1.00000000000000 ) );
#258 = VERTEX_POINT( '', #305 );
#259 = ORIENTED_EDGE( '', *, *, #299, .T. );
#260 = ORIENTED_EDGE( '', *, *, #294, .F. );
#261 = CARTESIAN_POINT( '', ( 0.000000000000000, -11.0000000000000, 0.000000000000000 ) );
#262 = DIRECTION( '', ( -0.000000000000000, 1.00000000000000, 0.000000000000000 ) );
#263 = DIRECTION( '', ( 0.000000000000000, 0.000000000000000, 1.00000000000000 ) );
#264 = ORIENTED_EDGE( '', *, *, #298, .F. );
#265 = ORIENTED_EDGE( '', *, *, #304, .T. );
#266 = CARTESIAN_POINT( '', ( 0.000000000000000, -23.0000000000000, 0.000000000000000 ) );
#267 = DIRECTION( '', ( -0.000000000000000, 1.00000000000000, 0.000000000000000 ) );
#268 = DIRECTION( '', ( 0.000000000000000, 0.000000000000000, 1.00000000000000 ) );
#269 = ORIENTED_EDGE( '', *, *, #306, .F. );
#270 = ORIENTED_EDGE( '', *, *, #286, .T. );
#271 = ORIENTED_EDGE( '', *, *, #307, .F. );
#272 = ORIENTED_EDGE( '', *, *, #292, .F. );
#273 = CARTESIAN_POINT( '', ( 0.000000000000000, 23.0000000000000, 0.000000000000000 ) );
#274 = DIRECTION( '', ( 0.000000000000000, -1.00000000000000, -0.000000000000000 ) );
#275 = DIRECTION( '', ( 0.000000000000000, 0.000000000000000, 1.00000000000000 ) );
#276 = ORIENTED_EDGE( '', *, *, #307, .T. );
#277 = ORIENTED_EDGE( '', *, *, #285, .T. );
#278 = ORIENTED_EDGE( '', *, *, #287, .T. );
#279 = ORIENTED_EDGE( '', *, *, #306, .T. );
#280 = ORIENTED_EDGE( '', *, *, #291, .F. );
#281 = ORIENTED_EDGE( '', *, *, #290, .F. );
#282 = CARTESIAN_POINT( '', ( 29.5000000000000, 7.50000000000000, 0.000000000000000 ) );
#283 = DIRECTION( '', ( 1.00000000000000, -0.000000000000000, -0.000000000000000 ) );
#284 = DIRECTION( '', ( 0.000000000000000, 0.000000000000000, 1.00000000000000 ) );
#285 = EDGE_CURVE( '', #308, #309, #310, .T. );
#286 = EDGE_CURVE( '', #311, #308, #312, .T. );
#287 = EDGE_CURVE( '', #309, #311, #313, .T. );
#288 = EDGE_CURVE( '', #309, #309, #314, .T. );
#289 = EDGE_CURVE( '', #315, #315, #316, .T. );
#290 = EDGE_CURVE( '', #317, #317, #318, .T. );
#291 = EDGE_CURVE( '', #319, #320, #321, .F. );
#292 = EDGE_CURVE( '', #320, #319, #322, .T. );
#293 = EDGE_CURVE( '', #323, #323, #324, .T. );
#294 = EDGE_CURVE( '', #325, #325, #326, .T. );
#295 = EDGE_CURVE( '', #327, #327, #328, .T. );
#296 = EDGE_CURVE( '', #329, #329, #330, .T. );
#297 = EDGE_CURVE( '', #331, #331, #332, .T. );
#298 = EDGE_CURVE( '', #333, #333, #334, .T. );
#299 = EDGE_CURVE( '', #335, #335, #336, .T. );
#300 = EDGE_CURVE( '', #337, #338, #339, .T. );
#301 = EDGE_CURVE( '', #337, #338, #340, .T. );
#302 = EDGE_CURVE( '', #341, #341, #342, .T. );
#303 = EDGE_CURVE( '', #337, #338, #343, .T. );
#304 = EDGE_CURVE( '', #344, #344, #345, .T. );
#305 = CARTESIAN_POINT( '', ( 0.000000000000000, -11.0000000000000, 16.1500000000000 ) );
#306 = EDGE_CURVE( '', #311, #320, #346, .T. );
#307 = EDGE_CURVE( '', #319, #308, #347, .T. );
#308 = VERTEX_POINT( '', #348 );
#309 = VERTEX_POINT( '', #349 );
#310 = B_SPLINE_CURVE_WITH_KNOTS( '', 3, ( #350, #351, #352, #353, #354, #355, #356, #357, #358, #359, #360, #361, #362, #363 ), .UNSPECIFIED., .F., .F., ( 4, 2, 2, 2, 2, 2, 4 ), ( 0.000463244966431131, 0.00237265151905610, 0.00332735479536858, 0.00428205807168106, 0.00619146462430603, 0.00714616790061851, 0.00810087117693099 ), .UNSPECIFIED. );
#311 = VERTEX_POINT( '', #364 );
#312 = CIRCLE( '', #365, 15.5000000000000 );
#313 = B_SPLINE_CURVE_WITH_KNOTS( '', 3, ( #366, #367, #368, #369, #370, #371, #372, #373, #374, #375, #376, #377, #378, #379 ), .UNSPECIFIED., .F., .F., ( 4, 2, 2, 2, 2, 2, 4 ), ( 0.00810087117693099, 0.00905352532748944, 0.0100061794780479, 0.0109588336286063, 0.0119114877791648, 0.0138167960802817, 0.0157221043813986 ), .UNSPECIFIED. );
#314 = CIRCLE( '', #380, 17.0000000000000 );
#315 = VERTEX_POINT( '', #381 );
#316 = CIRCLE( '', #382, 14.3900000000000 );
#317 = VERTEX_POINT( '', #383 );
#318 = CIRCLE( '', #384, 15.5000000000000 );
#319 = VERTEX_POINT( '', #385 );
#320 = VERTEX_POINT( '', #386 );
#321 = CIRCLE( '', #387, 15.5000000000000 );
#322 = CIRCLE( '', #388, 15.5000000000000 );
#323 = VERTEX_POINT( '', #389 );
#324 = CIRCLE( '', #390, 17.0000000000000 );
#325 = VERTEX_POINT( '', #391 );
#326 = CIRCLE( '', #392, 15.1500000000000 );
#327 = VERTEX_POINT( '', #393 );
#328 = CIRCLE( '', #394, 13.7700000000000 );
#329 = VERTEX_POINT( '', #395 );
#330 = CIRCLE( '', #396, 13.7700000000000 );
#331 = VERTEX_POINT( '', #397 );
#332 = CIRCLE( '', #398, 14.1500000000000 );
#333 = VERTEX_POINT( '', #399 );
#334 = CIRCLE( '', #400, 13.1500000000000 );
#335 = VERTEX_POINT( '', #401 );
#336 = CIRCLE( '', #402, 14.1500000000000 );
#337 = VERTEX_POINT( '', #403 );
#338 = VERTEX_POINT( '', #404 );
#339 = CIRCLE( '', #405, 12.0000000000000 );
#340 = ELLIPSE( '', #406, 16.9705627485000, 12.0000000000000 );
#341 = VERTEX_POINT( '', #407 );
#342 = CIRCLE( '', #408, 12.0000000000000 );
#343 = CIRCLE( '', #409, 12.0000000000000 );
#344 = VERTEX_POINT( '', #410 );
#345 = CIRCLE( '', #411, 12.0000000000000 );
#346 = ELLIPSE( '', #412, 21.9203102168000, 15.5000000000000 );
#347 = ELLIPSE( '', #413, 21.9203102168000, 15.5000000000000 );
#348 = CARTESIAN_POINT( '', ( 14.0000000000000, -6.50000000000000, 6.65206734782504 ) );
#349 = CARTESIAN_POINT( '', ( 17.0000000000000, -8.00000000000000, 0.000000000000000 ) );
#350 = CARTESIAN_POINT( '', ( 14.0000000000000, -6.50000000000000, 6.65206734782504 ) );
#351 = CARTESIAN_POINT( '', ( 14.4298147613175, -6.70397988672697, 6.22276946720283 ) );
#352 = CARTESIAN_POINT( '', ( 14.8275737613875, -6.89786845269128, 5.76430040553062 ) );
#353 = CARTESIAN_POINT( '', ( 15.3681492585120, -7.16571414254910, 5.02352191948896 ) );
#354 = CARTESIAN_POINT( '', ( 15.5389410653012, -7.25114584390091, 4.76769830087122 ) );
#355 = CARTESIAN_POINT( '', ( 15.8594222973439, -7.41259287478219, 4.23577909565180 ) );
#356 = CARTESIAN_POINT( '', ( 16.0094781263333, -7.48880015520254, 3.95859197454755 ) );
#357 = CARTESIAN_POINT( '', ( 16.4146901976596, -7.69572258284644, 3.11100260999235 ) );
#358 = CARTESIAN_POINT( '', ( 16.6287020121592, -7.80659869499793, 2.52006847093689 ) );
#359 = CARTESIAN_POINT( '', ( 16.8501014969847, -7.92171015434813, 1.58714621010683 ) );
#360 = CARTESIAN_POINT( '', ( 16.9066569118972, -7.95122549471474, 1.26896633211716 ) );
#361 = CARTESIAN_POINT( '', ( 16.9812951987531, -7.99020864631647, 0.635673606618940 ) );
#362 = CARTESIAN_POINT( '', ( 17.0000000000000, -8.00000000000000, 0.318235155755835 ) );
#363 = CARTESIAN_POINT( '', ( 17.0000000000000, -8.00000000000000, -4.86776896488300E-16 ) );
#364 = CARTESIAN_POINT( '', ( 14.0000000000000, -6.50000000000000, -6.65206734782503 ) );
#365 = AXIS2_PLACEMENT_3D( '', #414, #415, #416 );
#366 = CARTESIAN_POINT( '', ( 17.0000000000000, -8.00000000000000, 3.61171896708423E-16 ) );
#367 = CARTESIAN_POINT( '', ( 17.0000000000000, -8.00000000000000, -0.317552112270307 ) );
#368 = CARTESIAN_POINT( '', ( 16.9813771419372, -7.99025127488905, -0.635897443818872 ) );
#369 = CARTESIAN_POINT( '', ( 16.9059292117222, -7.95084559240853, -1.27421371747727 ) );
#370 = CARTESIAN_POINT( '', ( 16.8493409215228, -7.92131448243809, -1.59050530143336 ) );
#371 = CARTESIAN_POINT( '', ( 16.7028234331206, -7.84513661526555, -2.20758459384437 ) );
#372 = CARTESIAN_POINT( '', ( 16.6127036314806, -7.79839057148914, -2.51004411654085 ) );
#373 = CARTESIAN_POINT( '', ( 16.4008995770190, -7.68909133009432, -3.10363981654808 ) );
#374 = CARTESIAN_POINT( '', ( 16.2783764730805, -7.62611071539843, -3.39639151693207 ) );
#375 = CARTESIAN_POINT( '', ( 15.8725230767993, -7.41886974237249, -4.24454101797117 ) );
#376 = CARTESIAN_POINT( '', ( 15.5526159508285, -7.25714333692932, -4.76994734711483 ) );
#377 = CARTESIAN_POINT( '', ( 14.8330035850161, -6.90053004655743, -5.75763940683351 ) );
#378 = CARTESIAN_POINT( '', ( 14.4309345547846, -6.70451131413506, -6.22165102036160 ) );
#379 = CARTESIAN_POINT( '', ( 14.0000000000000, -6.50000000000002, -6.65206734782507 ) );
#380 = AXIS2_PLACEMENT_3D( '', #417, #418, #419 );
#381 = CARTESIAN_POINT( '', ( 29.5000000000000, 7.50000000000000, -14.3900000000000 ) );
#382 = AXIS2_PLACEMENT_3D( '', #420, #421, #422 );
#383 = CARTESIAN_POINT( '', ( 29.5000000000000, 7.50000000000000, -15.5000000000000 ) );
#384 = AXIS2_PLACEMENT_3D( '', #423, #424, #425 );
#385 = CARTESIAN_POINT( '', ( 0.000000000000000, 7.50000000000000, 15.5000000000000 ) );
#386 = CARTESIAN_POINT( '', ( 0.000000000000000, 7.50000000000000, -15.5000000000000 ) );
#387 = AXIS2_PLACEMENT_3D( '', #426, #427, #428 );
#388 = AXIS2_PLACEMENT_3D( '', #429, #430, #431 );
#389 = CARTESIAN_POINT( '', ( 0.000000000000000, -10.0000000000000, 17.0000000000000 ) );
#390 = AXIS2_PLACEMENT_3D( '', #432, #433, #434 );
#391 = CARTESIAN_POINT( '', ( 0.000000000000000, -10.0000000000000, 15.1500000000000 ) );
#392 = AXIS2_PLACEMENT_3D( '', #435, #436, #437 );
#393 = CARTESIAN_POINT( '', ( 28.8800000000000, 7.50000000000000, -13.7700000000000 ) );
#394 = AXIS2_PLACEMENT_3D( '', #438, #439, #440 );
#395 = CARTESIAN_POINT( '', ( 16.5000000000000, 7.50000000000000, -13.7700000000000 ) );
#396 = AXIS2_PLACEMENT_3D( '', #441, #442, #443 );
#397 = CARTESIAN_POINT( '', ( 0.000000000000000, -22.0000000000000, 14.1500000000000 ) );
#398 = AXIS2_PLACEMENT_3D( '', #444, #445, #446 );
#399 = CARTESIAN_POINT( '', ( 0.000000000000000, -23.0000000000000, 13.1500000000000 ) );
#400 = AXIS2_PLACEMENT_3D( '', #447, #448, #449 );
#401 = CARTESIAN_POINT( '', ( 0.000000000000000, -11.0000000000000, 14.1500000000000 ) );
#402 = AXIS2_PLACEMENT_3D( '', #450, #451, #452 );
#403 = CARTESIAN_POINT( '', ( 0.000000000000000, 7.50000000000000, -12.0000000000000 ) );
#404 = CARTESIAN_POINT( '', ( 0.000000000000000, 7.50000000000000, 12.0000000000000 ) );
#405 = AXIS2_PLACEMENT_3D( '', #453, #454, #455 );
#406 = AXIS2_PLACEMENT_3D( '', #456, #457, #458 );
#407 = CARTESIAN_POINT( '', ( 16.5000000000000, 7.50000000000000, -12.0000000000000 ) );
#408 = AXIS2_PLACEMENT_3D( '', #459, #460, #461 );
#409 = AXIS2_PLACEMENT_3D( '', #462, #463, #464 );
#410 = CARTESIAN_POINT( '', ( 12.0000000000000, -23.0000000000000, 0.000000000000000 ) );
#411 = AXIS2_PLACEMENT_3D( '', #465, #466, #467 );
#412 = AXIS2_PLACEMENT_3D( '', #468, #469, #470 );
#413 = AXIS2_PLACEMENT_3D( '', #471, #472, #473 );
#414 = CARTESIAN_POINT( '', ( 0.000000000000000, -6.50000000000000, 0.000000000000000 ) );
#415 = DIRECTION( '', ( -0.000000000000000, 1.00000000000000, 0.000000000000000 ) );
#416 = DIRECTION( '', ( 0.000000000000000, 0.000000000000000, 1.00000000000000 ) );
#417 = CARTESIAN_POINT( '', ( 0.000000000000000, -8.00000000000000, 0.000000000000000 ) );
#418 = DIRECTION( '', ( -0.000000000000000, 1.00000000000000, 0.000000000000000 ) );
#419 = DIRECTION( '', ( 0.000000000000000, 0.000000000000000, 1.00000000000000 ) );
#420 = CARTESIAN_POINT( '', ( 29.5000000000000, 7.50000000000000, 0.000000000000000 ) );
#421 = DIRECTION( '', ( 1.00000000000000, 0.000000000000000, -0.000000000000000 ) );
#422 = DIRECTION( '', ( -0.000000000000000, 0.000000000000000, -1.00000000000000 ) );
#423 = CARTESIAN_POINT( '', ( 29.5000000000000, 7.50000000000000, 0.000000000000000 ) );
#424 = DIRECTION( '', ( 1.00000000000000, 0.000000000000000, 0.000000000000000 ) );
#425 = DIRECTION( '', ( 0.000000000000000, 0.000000000000000, -1.00000000000000 ) );
#426 = CARTESIAN_POINT( '', ( 0.000000000000000, 7.50000000000001, 0.000000000000000 ) );
#427 = DIRECTION( '', ( 1.00000000000000, 0.000000000000000, 0.000000000000000 ) );
#428 = DIRECTION( '', ( 0.000000000000000, 0.000000000000000, -1.00000000000000 ) );
#429 = CARTESIAN_POINT( '', ( 0.000000000000000, 7.50000000000000, 0.000000000000000 ) );
#430 = DIRECTION( '', ( -0.000000000000000, 1.00000000000000, 0.000000000000000 ) );
#431 = DIRECTION( '', ( 0.000000000000000, 0.000000000000000, 1.00000000000000 ) );
#432 = CARTESIAN_POINT( '', ( 0.000000000000000, -10.0000000000000, 0.000000000000000 ) );
#433 = DIRECTION( '', ( -0.000000000000000, 1.00000000000000, 0.000000000000000 ) );
#434 = DIRECTION( '', ( 0.000000000000000, 0.000000000000000, 1.00000000000000 ) );
#435 = CARTESIAN_POINT( '', ( 0.000000000000000, -10.0000000000000, 0.000000000000000 ) );
#436 = DIRECTION( '', ( -0.000000000000000, 1.00000000000000, 0.000000000000000 ) );
#437 = DIRECTION( '', ( 0.000000000000000, 0.000000000000000, 1.00000000000000 ) );
#438 = CARTESIAN_POINT( '', ( 28.8800000000000, 7.50000000000000, 0.000000000000000 ) );
#439 = DIRECTION( '', ( 1.00000000000000, 0.000000000000000, -0.000000000000000 ) );
#440 = DIRECTION( '', ( -0.000000000000000, 0.000000000000000, -1.00000000000000 ) );
#441 = CARTESIAN_POINT( '', ( 16.5000000000000, 7.50000000000000, 0.000000000000000 ) );
#442 = DIRECTION( '', ( 1.00000000000000, 0.000000000000000, -0.000000000000000 ) );
#443 = DIRECTION( '', ( -0.000000000000000, 0.000000000000000, -1.00000000000000 ) );
#444 = CARTESIAN_POINT( '', ( 0.000000000000000, -22.0000000000000, 0.000000000000000 ) );
#445 = DIRECTION( '', ( -0.000000000000000, 1.00000000000000, 0.000000000000000 ) );
#446 = DIRECTION( '', ( 0.000000000000000, 0.000000000000000, 1.00000000000000 ) );
#447 = CARTESIAN_POINT( '', ( 0.000000000000000, -23.0000000000000, 0.000000000000000 ) );
#448 = DIRECTION( '', ( -0.000000000000000, 1.00000000000000, 0.000000000000000 ) );
#449 = DIRECTION( '', ( 0.000000000000000, 0.000000000000000, 1.00000000000000 ) );
#450 = CARTESIAN_POINT( '', ( 0.000000000000000, -11.0000000000000, 0.000000000000000 ) );
#451 = DIRECTION( '', ( -0.000000000000000, 1.00000000000000, 0.000000000000000 ) );
#452 = DIRECTION( '', ( 0.000000000000000, 0.000000000000000, 1.00000000000000 ) );
#453 = CARTESIAN_POINT( '', ( 0.000000000000000, 7.50000000000000, 0.000000000000000 ) );
#454 = DIRECTION( '', ( 1.00000000000000, 0.000000000000000, 0.000000000000000 ) );
#455 = DIRECTION( '', ( 0.000000000000000, 0.000000000000000, -1.00000000000000 ) );
#456 = CARTESIAN_POINT( '', ( -3.46944695195361E-15, 7.50000000000000, 0.000000000000000 ) );
#457 = DIRECTION( '', ( -0.707106781186548, -0.707106781186548, -0.000000000000000 ) );
#458 = DIRECTION( '', ( -0.707106781186547, 0.707106781186547, 0.000000000000000 ) );
#459 = CARTESIAN_POINT( '', ( 16.5000000000000, 7.50000000000000, 0.000000000000000 ) );
#460 = DIRECTION( '', ( 1.00000000000000, 0.000000000000000, -0.000000000000000 ) );
#461 = DIRECTION( '', ( -0.000000000000000, 0.000000000000000, -1.00000000000000 ) );
#462 = CARTESIAN_POINT( '', ( 0.000000000000000, 7.50000000000000, 0.000000000000000 ) );
#463 = DIRECTION( '', ( -0.000000000000000, 1.00000000000000, 0.000000000000000 ) );
#464 = DIRECTION( '', ( 1.00000000000000, 0.000000000000000, 0.000000000000000 ) );
#465 = CARTESIAN_POINT( '', ( 0.000000000000000, -23.0000000000000, 0.000000000000000 ) );
#466 = DIRECTION( '', ( -0.000000000000000, 1.00000000000000, 0.000000000000000 ) );
#467 = DIRECTION( '', ( 1.00000000000000, 0.000000000000000, 0.000000000000000 ) );
#468 = CARTESIAN_POINT( '', ( 3.46944695195361E-15, 7.50000000000000, 0.000000000000000 ) );
#469 = DIRECTION( '', ( 0.707106781186548, 0.707106781186548, 0.000000000000000 ) );
#470 = DIRECTION( '', ( -0.707106781186548, 0.707106781186547, -0.000000000000000 ) );
#471 = CARTESIAN_POINT( '', ( 3.46944695195361E-15, 7.50000000000000, 0.000000000000000 ) );
#472 = DIRECTION( '', ( 0.707106781186548, 0.707106781186548, 0.000000000000000 ) );
#473 = DIRECTION( '', ( -0.707106781186548, 0.707106781186547, -0.000000000000000 ) );
ENDSEC;
END-ISO-10303-21;
