ISO-10303-21;
HEADER;
FILE_DESCRIPTION( ( 'STEP AP203' ), '1' );
FILE_NAME( 'p:/temp/worker_98/temp/exporttempdir_1792_271_zvyyn/format_0/FLEXA WIC-P 0512.100.029.stp', '2020-03-10T14:34:34', ( '' ), ( '' ), ' ', 'PARTsolutions', ' ' );
FILE_SCHEMA( ( 'CONFIG_CONTROL_DESIGN' ) );
ENDSEC;
DATA;
#1 = DESIGN_CONTEXT( '', #27, 'design' );
#2 = APPLICATION_PROTOCOL_DEFINITION( 'international standard', 'config_control_design', 1994, #27 );
#3 = PRODUCT_CATEGORY_RELATIONSHIP( 'NONE', 'NONE', #28, #29 );
#4 = DATE_AND_TIME( #30, #31 );
#5 = DATE_TIME_ROLE( 'creation_date' );
#6 = DATE_TIME_ROLE( 'classification_date' );
#7 = PERSON_AND_ORGANIZATION_ROLE( 'creator' );
#8 = PERSON_AND_ORGANIZATION_ROLE( 'design_supplier' );
#9 = PERSON_AND_ORGANIZATION_ROLE( 'classification_officer' );
#10 = PERSON_AND_ORGANIZATION_ROLE( 'design_owner' );
#11 = APPROVAL_PERSON_ORGANIZATION( #32, #33, #34 );
#12 = APPROVAL_DATE_TIME( #4, #33 );
#13 = CC_DESIGN_APPROVAL( #33, ( #35, #36, #37 ) );
#14 = CC_DESIGN_DATE_AND_TIME_ASSIGNMENT( #4, #5, ( #37 ) );
#15 = CC_DESIGN_DATE_AND_TIME_ASSIGNMENT( #4, #6, ( #35 ) );
#16 = CC_DESIGN_PERSON_AND_ORGANIZATION_ASSIGNMENT( #32, #10, ( #38 ) );
#17 = CC_DESIGN_PERSON_AND_ORGANIZATION_ASSIGNMENT( #32, #7, ( #37 ) );
#18 = CC_DESIGN_PERSON_AND_ORGANIZATION_ASSIGNMENT( #32, #7, ( #36 ) );
#19 = CC_DESIGN_PERSON_AND_ORGANIZATION_ASSIGNMENT( #32, #8, ( #36 ) );
#20 = CC_DESIGN_SECURITY_CLASSIFICATION( #35, ( #36 ) );
#21 = CC_DESIGN_PERSON_AND_ORGANIZATION_ASSIGNMENT( #32, #9, ( #35 ) );
#22 = SHAPE_DEFINITION_REPRESENTATION( #39, #40 );
#23 =  ( GEOMETRIC_REPRESENTATION_CONTEXT( 3 )GLOBAL_UNCERTAINTY_ASSIGNED_CONTEXT( ( #43 ) )GLOBAL_UNIT_ASSIGNED_CONTEXT( ( #45, #46, #47 ) )REPRESENTATION_CONTEXT( 'NONE', 'WORKSPACE' ) );
#27 = APPLICATION_CONTEXT( 'configuration controlled 3D designs of mechanical parts and assemblies' );
#28 = PRODUCT_CATEGORY( 'part', 'NONE' );
#29 = PRODUCT_RELATED_PRODUCT_CATEGORY( 'detail', ' ', ( #38 ) );
#30 = CALENDAR_DATE( 2020, 10, 2 );
#31 = LOCAL_TIME( 15, 34, 34.0000000000000, #49 );
#32 = PERSON_AND_ORGANIZATION( #50, #51 );
#33 = APPROVAL( #52, 'SOLID MODEL' );
#34 = APPROVAL_ROLE( 'APPROVED' );
#35 = SECURITY_CLASSIFICATION( '', '', #53 );
#36 = PRODUCT_DEFINITION_FORMATION_WITH_SPECIFIED_SOURCE( ' ', 'NONE', #38, .NOT_KNOWN. );
#37 = PRODUCT_DEFINITION( 'NONE', 'NONE', #36, #1 );
#38 = PRODUCT( '_FLEXA WIC-P 0512.100.029', '_FLEXA WIC-P 0512.100.029', 'PART-_FLEXA WIC-P 0512.100.029-DESC', ( #54 ) );
#39 = PRODUCT_DEFINITION_SHAPE( 'NONE', 'NONE', #37 );
#40 = ADVANCED_BREP_SHAPE_REPRESENTATION( '_FLEXA WIC-P 0512.100.029', ( #55, #56 ), #23 );
#43 = UNCERTAINTY_MEASURE_WITH_UNIT( LENGTH_MEASURE( 0.00100000000000000 ), #45, '', '' );
#45 =  ( CONVERSION_BASED_UNIT( 'MILLIMETRE', #59 )LENGTH_UNIT(  )NAMED_UNIT( #62 ) );
#46 =  ( NAMED_UNIT( #64 )PLANE_ANGLE_UNIT(  )SI_UNIT( $, .RADIAN. ) );
#47 =  ( NAMED_UNIT( #64 )SI_UNIT( $, .STERADIAN. )SOLID_ANGLE_UNIT(  ) );
#49 = COORDINATED_UNIVERSAL_TIME_OFFSET( 1, 0, .AHEAD. );
#50 = PERSON( '', 'UNSPECIFIED', $, $, $, $ );
#51 = ORGANIZATION( 'UNSPECIFIED', 'UNSPECIFIED', 'UNSPECIFIED' );
#52 = APPROVAL_STATUS( 'approved' );
#53 = SECURITY_CLASSIFICATION_LEVEL( 'unclassified' );
#54 = MECHANICAL_CONTEXT( '', #27, 'mechanical' );
#55 = MANIFOLD_SOLID_BREP( '_FLEXA WIC-P 0512.100.029', #70 );
#56 = AXIS2_PLACEMENT_3D( '', #71, #72, #73 );
#59 = LENGTH_MEASURE_WITH_UNIT( LENGTH_MEASURE( 1.00000000000000 ), #74 );
#62 = DIMENSIONAL_EXPONENTS( 1.00000000000000, 0.000000000000000, 0.000000000000000, 0.000000000000000, 0.000000000000000, 0.000000000000000, 0.000000000000000 );
#64 = DIMENSIONAL_EXPONENTS( 0.000000000000000, 0.000000000000000, 0.000000000000000, 0.000000000000000, 0.000000000000000, 0.000000000000000, 0.000000000000000 );
#70 = CLOSED_SHELL( '', ( #75, #76, #77, #78, #79, #80, #81, #82, #83, #84, #85, #86, #87, #88, #89, #90, #91 ) );
#71 = CARTESIAN_POINT( '', ( 0.000000000000000, 0.000000000000000, 0.000000000000000 ) );
#72 = DIRECTION( '', ( 0.000000000000000, 0.000000000000000, 1.00000000000000 ) );
#73 = DIRECTION( '', ( 1.00000000000000, 0.000000000000000, 0.000000000000000 ) );
#74 =  ( LENGTH_UNIT(  )NAMED_UNIT( #62 )SI_UNIT( .MILLI., .METRE. ) );
#75 = ADVANCED_FACE( '', ( #93, #94 ), #95, .T. );
#76 = ADVANCED_FACE( '', ( #96, #97 ), #98, .F. );
#77 = ADVANCED_FACE( '', ( #99 ), #100, .F. );
#78 = ADVANCED_FACE( '', ( #101, #102 ), #103, .T. );
#79 = ADVANCED_FACE( '', ( #104, #105 ), #106, .F. );
#80 = ADVANCED_FACE( '', ( #107, #108 ), #109, .T. );
#81 = ADVANCED_FACE( '', ( #110, #111 ), #112, .T. );
#82 = ADVANCED_FACE( '', ( #113, #114 ), #115, .T. );
#83 = ADVANCED_FACE( '', ( #116 ), #117, .T. );
#84 = ADVANCED_FACE( '', ( #118, #119 ), #120, .T. );
#85 = ADVANCED_FACE( '', ( #121, #122 ), #123, .F. );
#86 = ADVANCED_FACE( '', ( #124, #125 ), #126, .T. );
#87 = ADVANCED_FACE( '', ( #127, #128 ), #129, .T. );
#88 = ADVANCED_FACE( '', ( #130, #131 ), #132, .T. );
#89 = ADVANCED_FACE( '', ( #133, #134 ), #135, .F. );
#90 = ADVANCED_FACE( '', ( #136, #137 ), #138, .F. );
#91 = ADVANCED_FACE( '', ( #139, #140, #141 ), #142, .T. );
#93 = FACE_OUTER_BOUND( '', #143, .T. );
#94 = FACE_BOUND( '', #144, .T. );
#95 = PLANE( '', #145 );
#96 = FACE_OUTER_BOUND( '', #146, .T. );
#97 = FACE_BOUND( '', #147, .T. );
#98 = CONICAL_SURFACE( '', #148, 17.7400000000000, 0.785398163400000 );
#99 = FACE_OUTER_BOUND( '', #149, .T. );
#100 = SPHERICAL_SURFACE( '', #150, 16.0000000000000 );
#101 = FACE_BOUND( '', #151, .T. );
#102 = FACE_OUTER_BOUND( '', #152, .T. );
#103 = PLANE( '', #153 );
#104 = FACE_OUTER_BOUND( '', #154, .T. );
#105 = FACE_OUTER_BOUND( '', #155, .T. );
#106 = CYLINDRICAL_SURFACE( '', #156, 18.1200000000000 );
#107 = FACE_OUTER_BOUND( '', #157, .T. );
#108 = FACE_OUTER_BOUND( '', #158, .T. );
#109 = CYLINDRICAL_SURFACE( '', #159, 21.5000000000000 );
#110 = FACE_BOUND( '', #160, .T. );
#111 = FACE_OUTER_BOUND( '', #161, .T. );
#112 = PLANE( '', #162 );
#113 = FACE_OUTER_BOUND( '', #163, .T. );
#114 = FACE_OUTER_BOUND( '', #164, .T. );
#115 = CYLINDRICAL_SURFACE( '', #165, 20.0000000000000 );
#116 = FACE_OUTER_BOUND( '', #166, .T. );
#117 = SPHERICAL_SURFACE( '', #167, 20.0000000000000 );
#118 = FACE_OUTER_BOUND( '', #168, .T. );
#119 = FACE_OUTER_BOUND( '', #169, .T. );
#120 = CYLINDRICAL_SURFACE( '', #170, 20.0000000000000 );
#121 = FACE_OUTER_BOUND( '', #171, .T. );
#122 = FACE_OUTER_BOUND( '', #172, .T. );
#123 = CYLINDRICAL_SURFACE( '', #173, 16.0000000000000 );
#124 = FACE_OUTER_BOUND( '', #174, .T. );
#125 = FACE_BOUND( '', #175, .T. );
#126 = CONICAL_SURFACE( '', #176, 20.0000000000000, 0.785398163400000 );
#127 = FACE_OUTER_BOUND( '', #177, .T. );
#128 = FACE_BOUND( '', #178, .T. );
#129 = CONICAL_SURFACE( '', #179, 17.5000000000000, 0.785398163400000 );
#130 = FACE_OUTER_BOUND( '', #180, .T. );
#131 = FACE_OUTER_BOUND( '', #181, .T. );
#132 = CYLINDRICAL_SURFACE( '', #182, 18.5000000000000 );
#133 = FACE_OUTER_BOUND( '', #183, .T. );
#134 = FACE_OUTER_BOUND( '', #184, .T. );
#135 = CYLINDRICAL_SURFACE( '', #185, 16.0000000000000 );
#136 = FACE_OUTER_BOUND( '', #186, .T. );
#137 = FACE_BOUND( '', #187, .T. );
#138 = PLANE( '', #188 );
#139 = FACE_BOUND( '', #189, .T. );
#140 = FACE_OUTER_BOUND( '', #190, .T. );
#141 = FACE_OUTER_BOUND( '', #191, .T. );
#142 = TOROIDAL_SURFACE( '', #192, 19.5000000000000, 1.00000000000000 );
#143 = EDGE_LOOP( '', ( #193 ) );
#144 = EDGE_LOOP( '', ( #194 ) );
#145 = AXIS2_PLACEMENT_3D( '', #195, #196, #197 );
#146 = EDGE_LOOP( '', ( #198 ) );
#147 = EDGE_LOOP( '', ( #199 ) );
#148 = AXIS2_PLACEMENT_3D( '', #200, #201, #202 );
#149 = EDGE_LOOP( '', ( #203, #204 ) );
#150 = AXIS2_PLACEMENT_3D( '', #205, #206, #207 );
#151 = EDGE_LOOP( '', ( #208 ) );
#152 = EDGE_LOOP( '', ( #209 ) );
#153 = AXIS2_PLACEMENT_3D( '', #210, #211, #212 );
#154 = EDGE_LOOP( '', ( #213 ) );
#155 = EDGE_LOOP( '', ( #214 ) );
#156 = AXIS2_PLACEMENT_3D( '', #215, #216, #217 );
#157 = EDGE_LOOP( '', ( #218 ) );
#158 = EDGE_LOOP( '', ( #219 ) );
#159 = AXIS2_PLACEMENT_3D( '', #220, #221, #222 );
#160 = EDGE_LOOP( '', ( #223 ) );
#161 = EDGE_LOOP( '', ( #224 ) );
#162 = AXIS2_PLACEMENT_3D( '', #225, #226, #227 );
#163 = EDGE_LOOP( '', ( #228 ) );
#164 = EDGE_LOOP( '', ( #229, #230 ) );
#165 = AXIS2_PLACEMENT_3D( '', #231, #232, #233 );
#166 = EDGE_LOOP( '', ( #234, #235 ) );
#167 = AXIS2_PLACEMENT_3D( '', #236, #237, #238 );
#168 = EDGE_LOOP( '', ( #239, #240 ) );
#169 = EDGE_LOOP( '', ( #241 ) );
#170 = AXIS2_PLACEMENT_3D( '', #242, #243, #244 );
#171 = EDGE_LOOP( '', ( #245, #246 ) );
#172 = EDGE_LOOP( '', ( #247 ) );
#173 = AXIS2_PLACEMENT_3D( '', #248, #249, #250 );
#174 = EDGE_LOOP( '', ( #251 ) );
#175 = EDGE_LOOP( '', ( #252 ) );
#176 = AXIS2_PLACEMENT_3D( '', #253, #254, #255 );
#177 = EDGE_LOOP( '', ( #256 ) );
#178 = EDGE_LOOP( '', ( #257 ) );
#179 = AXIS2_PLACEMENT_3D( '', #258, #259, #260 );
#180 = EDGE_LOOP( '', ( #261 ) );
#181 = EDGE_LOOP( '', ( #262 ) );
#182 = AXIS2_PLACEMENT_3D( '', #263, #264, #265 );
#183 = EDGE_LOOP( '', ( #266, #267 ) );
#184 = EDGE_LOOP( '', ( #268 ) );
#185 = AXIS2_PLACEMENT_3D( '', #269, #270, #271 );
#186 = EDGE_LOOP( '', ( #272 ) );
#187 = EDGE_LOOP( '', ( #273 ) );
#188 = AXIS2_PLACEMENT_3D( '', #274, #275, #276 );
#189 = VERTEX_LOOP( '', #277 );
#190 = EDGE_LOOP( '', ( #278 ) );
#191 = EDGE_LOOP( '', ( #279 ) );
#192 = AXIS2_PLACEMENT_3D( '', #280, #281, #282 );
#193 = ORIENTED_EDGE( '', *, *, #283, .T. );
#194 = ORIENTED_EDGE( '', *, *, #284, .F. );
#195 = CARTESIAN_POINT( '', ( 21.0000000000000, 9.50000000000000, 0.000000000000000 ) );
#196 = DIRECTION( '', ( 1.00000000000000, 0.000000000000000, -0.000000000000000 ) );
#197 = DIRECTION( '', ( -0.000000000000000, 0.000000000000000, -1.00000000000000 ) );
#198 = ORIENTED_EDGE( '', *, *, #285, .T. );
#199 = ORIENTED_EDGE( '', *, *, #286, .F. );
#200 = CARTESIAN_POINT( '', ( 35.0000000000000, 9.50000000000000, 0.000000000000000 ) );
#201 = DIRECTION( '', ( 1.00000000000000, -0.000000000000000, -0.000000000000000 ) );
#202 = DIRECTION( '', ( -0.000000000000000, 0.000000000000000, -1.00000000000000 ) );
#203 = ORIENTED_EDGE( '', *, *, #287, .T. );
#204 = ORIENTED_EDGE( '', *, *, #288, .F. );
#205 = CARTESIAN_POINT( '', ( 0.000000000000000, 9.50000000000000, -1.73472347597681E-15 ) );
#206 = DIRECTION( '', ( 0.000000000000000, 0.000000000000000, -1.00000000000000 ) );
#207 = DIRECTION( '', ( 0.000000000000000, -1.00000000000000, 0.000000000000000 ) );
#208 = ORIENTED_EDGE( '', *, *, #289, .T. );
#209 = ORIENTED_EDGE( '', *, *, #290, .F. );
#210 = CARTESIAN_POINT( '', ( -21.5000000000000, -14.5000000000000, 0.000000000000000 ) );
#211 = DIRECTION( '', ( 0.000000000000000, -1.00000000000000, 0.000000000000000 ) );
#212 = DIRECTION( '', ( 0.000000000000000, 0.000000000000000, -1.00000000000000 ) );
#213 = ORIENTED_EDGE( '', *, *, #286, .T. );
#214 = ORIENTED_EDGE( '', *, *, #283, .F. );
#215 = CARTESIAN_POINT( '', ( 36.0000000000000, 9.50000000000000, 0.000000000000000 ) );
#216 = DIRECTION( '', ( -1.00000000000000, -0.000000000000000, 0.000000000000000 ) );
#217 = DIRECTION( '', ( -0.000000000000000, 0.000000000000000, -1.00000000000000 ) );
#218 = ORIENTED_EDGE( '', *, *, #290, .T. );
#219 = ORIENTED_EDGE( '', *, *, #291, .F. );
#220 = CARTESIAN_POINT( '', ( 0.000000000000000, 50.0000000000000, 0.000000000000000 ) );
#221 = DIRECTION( '', ( 0.000000000000000, -1.00000000000000, -0.000000000000000 ) );
#222 = DIRECTION( '', ( 0.000000000000000, 0.000000000000000, 1.00000000000000 ) );
#223 = ORIENTED_EDGE( '', *, *, #285, .F. );
#224 = ORIENTED_EDGE( '', *, *, #292, .T. );
#225 = CARTESIAN_POINT( '', ( 36.0000000000000, 9.50000000000000, 0.000000000000000 ) );
#226 = DIRECTION( '', ( 1.00000000000000, 0.000000000000000, 0.000000000000000 ) );
#227 = DIRECTION( '', ( 0.000000000000000, 0.000000000000000, -1.00000000000000 ) );
#228 = ORIENTED_EDGE( '', *, *, #292, .F. );
#229 = ORIENTED_EDGE( '', *, *, #293, .F. );
#230 = ORIENTED_EDGE( '', *, *, #294, .T. );
#231 = CARTESIAN_POINT( '', ( 36.0000000000000, 9.50000000000000, 0.000000000000000 ) );
#232 = DIRECTION( '', ( 1.00000000000000, -0.000000000000000, -0.000000000000000 ) );
#233 = DIRECTION( '', ( 0.000000000000000, 0.000000000000000, 1.00000000000000 ) );
#234 = ORIENTED_EDGE( '', *, *, #293, .T. );
#235 = ORIENTED_EDGE( '', *, *, #295, .T. );
#236 = CARTESIAN_POINT( '', ( 3.46944695195361E-15, 9.50000000000000, 0.000000000000000 ) );
#237 = DIRECTION( '', ( 0.000000000000000, 1.00000000000000, 0.000000000000000 ) );
#238 = DIRECTION( '', ( -1.00000000000000, 0.000000000000000, 0.000000000000000 ) );
#239 = ORIENTED_EDGE( '', *, *, #295, .F. );
#240 = ORIENTED_EDGE( '', *, *, #294, .F. );
#241 = ORIENTED_EDGE( '', *, *, #296, .T. );
#242 = CARTESIAN_POINT( '', ( 0.000000000000000, 29.5000000000000, 0.000000000000000 ) );
#243 = DIRECTION( '', ( 0.000000000000000, -1.00000000000000, -0.000000000000000 ) );
#244 = DIRECTION( '', ( 0.000000000000000, 0.000000000000000, 1.00000000000000 ) );
#245 = ORIENTED_EDGE( '', *, *, #287, .F. );
#246 = ORIENTED_EDGE( '', *, *, #297, .T. );
#247 = ORIENTED_EDGE( '', *, *, #284, .T. );
#248 = CARTESIAN_POINT( '', ( 56.0000000000000, 9.50000000000000, 0.000000000000000 ) );
#249 = DIRECTION( '', ( 1.00000000000000, -0.000000000000000, -0.000000000000000 ) );
#250 = DIRECTION( '', ( 0.000000000000000, 0.000000000000000, 1.00000000000000 ) );
#251 = ORIENTED_EDGE( '', *, *, #291, .T. );
#252 = ORIENTED_EDGE( '', *, *, #296, .F. );
#253 = CARTESIAN_POINT( '', ( 0.000000000000000, -11.0000000000000, 0.000000000000000 ) );
#254 = DIRECTION( '', ( 0.000000000000000, -1.00000000000000, -0.000000000000000 ) );
#255 = DIRECTION( '', ( 0.000000000000000, 0.000000000000000, -1.00000000000000 ) );
#256 = ORIENTED_EDGE( '', *, *, #298, .F. );
#257 = ORIENTED_EDGE( '', *, *, #299, .T. );
#258 = CARTESIAN_POINT( '', ( 0.000000000000000, -29.5000000000000, 0.000000000000000 ) );
#259 = DIRECTION( '', ( -0.000000000000000, 1.00000000000000, -0.000000000000000 ) );
#260 = DIRECTION( '', ( 0.000000000000000, 0.000000000000000, 1.00000000000000 ) );
#261 = ORIENTED_EDGE( '', *, *, #300, .F. );
#262 = ORIENTED_EDGE( '', *, *, #298, .T. );
#263 = CARTESIAN_POINT( '', ( 0.000000000000000, 50.0000000000000, 0.000000000000000 ) );
#264 = DIRECTION( '', ( 0.000000000000000, -1.00000000000000, -0.000000000000000 ) );
#265 = DIRECTION( '', ( 0.000000000000000, 0.000000000000000, 1.00000000000000 ) );
#266 = ORIENTED_EDGE( '', *, *, #288, .T. );
#267 = ORIENTED_EDGE( '', *, *, #297, .F. );
#268 = ORIENTED_EDGE( '', *, *, #301, .F. );
#269 = CARTESIAN_POINT( '', ( 0.000000000000000, 9.50000000000000, 0.000000000000000 ) );
#270 = DIRECTION( '', ( -0.000000000000000, 1.00000000000000, 0.000000000000000 ) );
#271 = DIRECTION( '', ( 0.000000000000000, 0.000000000000000, -1.00000000000000 ) );
#272 = ORIENTED_EDGE( '', *, *, #299, .F. );
#273 = ORIENTED_EDGE( '', *, *, #301, .T. );
#274 = CARTESIAN_POINT( '', ( 0.000000000000000, -29.5000000000000, 0.000000000000000 ) );
#275 = DIRECTION( '', ( -0.000000000000000, 1.00000000000000, 0.000000000000000 ) );
#276 = DIRECTION( '', ( 0.000000000000000, 0.000000000000000, 1.00000000000000 ) );
#277 = VERTEX_POINT( '', #302 );
#278 = ORIENTED_EDGE( '', *, *, #300, .T. );
#279 = ORIENTED_EDGE( '', *, *, #289, .F. );
#280 = CARTESIAN_POINT( '', ( 0.000000000000000, -15.5000000000000, 0.000000000000000 ) );
#281 = DIRECTION( '', ( -0.000000000000000, 1.00000000000000, 0.000000000000000 ) );
#282 = DIRECTION( '', ( 0.000000000000000, 0.000000000000000, 1.00000000000000 ) );
#283 = EDGE_CURVE( '', #303, #303, #304, .T. );
#284 = EDGE_CURVE( '', #305, #305, #306, .T. );
#285 = EDGE_CURVE( '', #307, #307, #308, .T. );
#286 = EDGE_CURVE( '', #309, #309, #310, .T. );
#287 = EDGE_CURVE( '', #311, #312, #313, .T. );
#288 = EDGE_CURVE( '', #311, #312, #314, .T. );
#289 = EDGE_CURVE( '', #315, #315, #316, .T. );
#290 = EDGE_CURVE( '', #317, #317, #318, .T. );
#291 = EDGE_CURVE( '', #319, #319, #320, .T. );
#292 = EDGE_CURVE( '', #321, #321, #322, .T. );
#293 = EDGE_CURVE( '', #323, #324, #325, .F. );
#294 = EDGE_CURVE( '', #323, #324, #326, .T. );
#295 = EDGE_CURVE( '', #324, #323, #327, .T. );
#296 = EDGE_CURVE( '', #328, #328, #329, .T. );
#297 = EDGE_CURVE( '', #311, #312, #330, .T. );
#298 = EDGE_CURVE( '', #331, #331, #332, .T. );
#299 = EDGE_CURVE( '', #333, #333, #334, .T. );
#300 = EDGE_CURVE( '', #335, #335, #336, .T. );
#301 = EDGE_CURVE( '', #337, #337, #338, .T. );
#302 = CARTESIAN_POINT( '', ( 0.000000000000000, -15.5000000000000, 20.5000000000000 ) );
#303 = VERTEX_POINT( '', #339 );
#304 = CIRCLE( '', #340, 18.1200000000000 );
#305 = VERTEX_POINT( '', #341 );
#306 = CIRCLE( '', #342, 16.0000000000000 );
#307 = VERTEX_POINT( '', #343 );
#308 = CIRCLE( '', #344, 18.7400000000000 );
#309 = VERTEX_POINT( '', #345 );
#310 = CIRCLE( '', #346, 18.1200000000000 );
#311 = VERTEX_POINT( '', #347 );
#312 = VERTEX_POINT( '', #348 );
#313 = CIRCLE( '', #349, 16.0000000000000 );
#314 = CIRCLE( '', #350, 16.0000000000000 );
#315 = VERTEX_POINT( '', #351 );
#316 = CIRCLE( '', #352, 19.5000000000000 );
#317 = VERTEX_POINT( '', #353 );
#318 = CIRCLE( '', #354, 21.5000000000000 );
#319 = VERTEX_POINT( '', #355 );
#320 = CIRCLE( '', #356, 21.5000000000000 );
#321 = VERTEX_POINT( '', #357 );
#322 = CIRCLE( '', #358, 20.0000000000000 );
#323 = VERTEX_POINT( '', #359 );
#324 = VERTEX_POINT( '', #360 );
#325 = CIRCLE( '', #361, 20.0000000000000 );
#326 = ELLIPSE( '', #362, 28.2842712475000, 20.0000000000000 );
#327 = CIRCLE( '', #363, 20.0000000000000 );
#328 = VERTEX_POINT( '', #364 );
#329 = CIRCLE( '', #365, 20.0000000000000 );
#330 = ELLIPSE( '', #366, 22.6274169980000, 16.0000000000000 );
#331 = VERTEX_POINT( '', #367 );
#332 = CIRCLE( '', #368, 18.5000000000000 );
#333 = VERTEX_POINT( '', #369 );
#334 = CIRCLE( '', #370, 17.5000000000000 );
#335 = VERTEX_POINT( '', #371 );
#336 = CIRCLE( '', #372, 18.5000000000000 );
#337 = VERTEX_POINT( '', #373 );
#338 = CIRCLE( '', #374, 16.0000000000000 );
#339 = CARTESIAN_POINT( '', ( 21.0000000000000, 9.50000000000000, -18.1200000000000 ) );
#340 = AXIS2_PLACEMENT_3D( '', #375, #376, #377 );
#341 = CARTESIAN_POINT( '', ( 21.0000000000000, 9.50000000000000, -16.0000000000000 ) );
#342 = AXIS2_PLACEMENT_3D( '', #378, #379, #380 );
#343 = CARTESIAN_POINT( '', ( 36.0000000000000, 9.50000000000000, -18.7400000000000 ) );
#344 = AXIS2_PLACEMENT_3D( '', #381, #382, #383 );
#345 = CARTESIAN_POINT( '', ( 35.3800000000000, 9.50000000000000, -18.1200000000000 ) );
#346 = AXIS2_PLACEMENT_3D( '', #384, #385, #386 );
#347 = CARTESIAN_POINT( '', ( 0.000000000000000, 9.50000000000000, -16.0000000000000 ) );
#348 = CARTESIAN_POINT( '', ( 0.000000000000000, 9.50000000000000, 16.0000000000000 ) );
#349 = AXIS2_PLACEMENT_3D( '', #387, #388, #389 );
#350 = AXIS2_PLACEMENT_3D( '', #390, #391, #392 );
#351 = CARTESIAN_POINT( '', ( 0.000000000000000, -14.5000000000000, 19.5000000000000 ) );
#352 = AXIS2_PLACEMENT_3D( '', #393, #394, #395 );
#353 = CARTESIAN_POINT( '', ( 0.000000000000000, -14.5000000000000, 21.5000000000000 ) );
#354 = AXIS2_PLACEMENT_3D( '', #396, #397, #398 );
#355 = CARTESIAN_POINT( '', ( 0.000000000000000, -12.5000000000000, 21.5000000000000 ) );
#356 = AXIS2_PLACEMENT_3D( '', #399, #400, #401 );
#357 = CARTESIAN_POINT( '', ( 36.0000000000000, 9.50000000000000, -20.0000000000000 ) );
#358 = AXIS2_PLACEMENT_3D( '', #402, #403, #404 );
#359 = CARTESIAN_POINT( '', ( 0.000000000000000, 9.50000000000000, 20.0000000000000 ) );
#360 = CARTESIAN_POINT( '', ( 0.000000000000000, 9.50000000000000, -20.0000000000000 ) );
#361 = AXIS2_PLACEMENT_3D( '', #405, #406, #407 );
#362 = AXIS2_PLACEMENT_3D( '', #408, #409, #410 );
#363 = AXIS2_PLACEMENT_3D( '', #411, #412, #413 );
#364 = CARTESIAN_POINT( '', ( 0.000000000000000, -11.0000000000000, 20.0000000000000 ) );
#365 = AXIS2_PLACEMENT_3D( '', #414, #415, #416 );
#366 = AXIS2_PLACEMENT_3D( '', #417, #418, #419 );
#367 = CARTESIAN_POINT( '', ( 0.000000000000000, -28.5000000000000, 18.5000000000000 ) );
#368 = AXIS2_PLACEMENT_3D( '', #420, #421, #422 );
#369 = CARTESIAN_POINT( '', ( 0.000000000000000, -29.5000000000000, 17.5000000000000 ) );
#370 = AXIS2_PLACEMENT_3D( '', #423, #424, #425 );
#371 = CARTESIAN_POINT( '', ( 0.000000000000000, -15.5000000000000, 18.5000000000000 ) );
#372 = AXIS2_PLACEMENT_3D( '', #426, #427, #428 );
#373 = CARTESIAN_POINT( '', ( 16.0000000000000, -29.5000000000000, 0.000000000000000 ) );
#374 = AXIS2_PLACEMENT_3D( '', #429, #430, #431 );
#375 = CARTESIAN_POINT( '', ( 21.0000000000000, 9.50000000000000, 0.000000000000000 ) );
#376 = DIRECTION( '', ( 1.00000000000000, 0.000000000000000, -0.000000000000000 ) );
#377 = DIRECTION( '', ( -0.000000000000000, 0.000000000000000, -1.00000000000000 ) );
#378 = CARTESIAN_POINT( '', ( 21.0000000000000, 9.50000000000000, 0.000000000000000 ) );
#379 = DIRECTION( '', ( 1.00000000000000, 0.000000000000000, -0.000000000000000 ) );
#380 = DIRECTION( '', ( -0.000000000000000, 0.000000000000000, -1.00000000000000 ) );
#381 = CARTESIAN_POINT( '', ( 36.0000000000000, 9.50000000000000, 0.000000000000000 ) );
#382 = DIRECTION( '', ( 1.00000000000000, 0.000000000000000, -0.000000000000000 ) );
#383 = DIRECTION( '', ( -0.000000000000000, 0.000000000000000, -1.00000000000000 ) );
#384 = CARTESIAN_POINT( '', ( 35.3800000000000, 9.50000000000000, 0.000000000000000 ) );
#385 = DIRECTION( '', ( 1.00000000000000, 0.000000000000000, -0.000000000000000 ) );
#386 = DIRECTION( '', ( -0.000000000000000, 0.000000000000000, -1.00000000000000 ) );
#387 = CARTESIAN_POINT( '', ( 0.000000000000000, 9.50000000000000, 0.000000000000000 ) );
#388 = DIRECTION( '', ( 1.00000000000000, 0.000000000000000, 0.000000000000000 ) );
#389 = DIRECTION( '', ( 0.000000000000000, 0.000000000000000, -1.00000000000000 ) );
#390 = CARTESIAN_POINT( '', ( 0.000000000000000, 9.50000000000000, 0.000000000000000 ) );
#391 = DIRECTION( '', ( -0.000000000000000, 1.00000000000000, 0.000000000000000 ) );
#392 = DIRECTION( '', ( 1.00000000000000, 0.000000000000000, 0.000000000000000 ) );
#393 = CARTESIAN_POINT( '', ( 0.000000000000000, -14.5000000000000, 0.000000000000000 ) );
#394 = DIRECTION( '', ( -0.000000000000000, 1.00000000000000, 0.000000000000000 ) );
#395 = DIRECTION( '', ( 0.000000000000000, 0.000000000000000, 1.00000000000000 ) );
#396 = CARTESIAN_POINT( '', ( 0.000000000000000, -14.5000000000000, 0.000000000000000 ) );
#397 = DIRECTION( '', ( -0.000000000000000, 1.00000000000000, 0.000000000000000 ) );
#398 = DIRECTION( '', ( 0.000000000000000, 0.000000000000000, 1.00000000000000 ) );
#399 = CARTESIAN_POINT( '', ( 0.000000000000000, -12.5000000000000, 0.000000000000000 ) );
#400 = DIRECTION( '', ( -0.000000000000000, 1.00000000000000, 0.000000000000000 ) );
#401 = DIRECTION( '', ( 0.000000000000000, 0.000000000000000, 1.00000000000000 ) );
#402 = CARTESIAN_POINT( '', ( 36.0000000000000, 9.50000000000000, 0.000000000000000 ) );
#403 = DIRECTION( '', ( 1.00000000000000, 0.000000000000000, 0.000000000000000 ) );
#404 = DIRECTION( '', ( 0.000000000000000, 0.000000000000000, -1.00000000000000 ) );
#405 = CARTESIAN_POINT( '', ( 0.000000000000000, 9.50000000000000, 0.000000000000000 ) );
#406 = DIRECTION( '', ( 1.00000000000000, 0.000000000000000, 0.000000000000000 ) );
#407 = DIRECTION( '', ( 0.000000000000000, 0.000000000000000, -1.00000000000000 ) );
#408 = CARTESIAN_POINT( '', ( 0.000000000000000, 9.50000000000000, 0.000000000000000 ) );
#409 = DIRECTION( '', ( 0.707106781186548, 0.707106781186548, 0.000000000000000 ) );
#410 = DIRECTION( '', ( -0.707106781186547, 0.707106781186547, -0.000000000000000 ) );
#411 = CARTESIAN_POINT( '', ( 0.000000000000000, 9.50000000000000, 0.000000000000000 ) );
#412 = DIRECTION( '', ( -0.000000000000000, 1.00000000000000, 0.000000000000000 ) );
#413 = DIRECTION( '', ( 0.000000000000000, 0.000000000000000, 1.00000000000000 ) );
#414 = CARTESIAN_POINT( '', ( 0.000000000000000, -11.0000000000000, 0.000000000000000 ) );
#415 = DIRECTION( '', ( -0.000000000000000, 1.00000000000000, 0.000000000000000 ) );
#416 = DIRECTION( '', ( 0.000000000000000, 0.000000000000000, 1.00000000000000 ) );
#417 = CARTESIAN_POINT( '', ( 0.000000000000000, 9.50000000000000, 0.000000000000000 ) );
#418 = DIRECTION( '', ( -0.707106781186548, -0.707106781186548, -0.000000000000000 ) );
#419 = DIRECTION( '', ( -0.707106781186548, 0.707106781186548, 0.000000000000000 ) );
#420 = CARTESIAN_POINT( '', ( 0.000000000000000, -28.5000000000000, 0.000000000000000 ) );
#421 = DIRECTION( '', ( -0.000000000000000, 1.00000000000000, 0.000000000000000 ) );
#422 = DIRECTION( '', ( 0.000000000000000, 0.000000000000000, 1.00000000000000 ) );
#423 = CARTESIAN_POINT( '', ( 0.000000000000000, -29.5000000000000, 0.000000000000000 ) );
#424 = DIRECTION( '', ( -0.000000000000000, 1.00000000000000, 0.000000000000000 ) );
#425 = DIRECTION( '', ( 0.000000000000000, 0.000000000000000, 1.00000000000000 ) );
#426 = CARTESIAN_POINT( '', ( 0.000000000000000, -15.5000000000000, 0.000000000000000 ) );
#427 = DIRECTION( '', ( -0.000000000000000, 1.00000000000000, 0.000000000000000 ) );
#428 = DIRECTION( '', ( 0.000000000000000, 0.000000000000000, 1.00000000000000 ) );
#429 = CARTESIAN_POINT( '', ( 0.000000000000000, -29.5000000000000, 0.000000000000000 ) );
#430 = DIRECTION( '', ( -0.000000000000000, 1.00000000000000, 0.000000000000000 ) );
#431 = DIRECTION( '', ( 1.00000000000000, 0.000000000000000, 0.000000000000000 ) );
ENDSEC;
END-ISO-10303-21;
