ISO-10303-21;
HEADER;
FILE_DESCRIPTION( ( 'STEP AP203' ), '1' );
FILE_NAME( 'p:/temp/worker_93/temp/exporttempdir_3888_218_pWGKi/format_0/FLEXA WIC-P 0512.100.009.stp', '2020-03-10T14:21:26', ( '' ), ( '' ), ' ', 'PARTsolutions', ' ' );
FILE_SCHEMA( ( 'CONFIG_CONTROL_DESIGN' ) );
ENDSEC;
DATA;
#1 = DESIGN_CONTEXT( '', #27, 'design' );
#2 = APPLICATION_PROTOCOL_DEFINITION( 'international standard', 'config_control_design', 1994, #27 );
#3 = PRODUCT_CATEGORY_RELATIONSHIP( 'NONE', 'NONE', #28, #29 );
#4 = DATE_AND_TIME( #30, #31 );
#5 = DATE_TIME_ROLE( 'creation_date' );
#6 = DATE_TIME_ROLE( 'classification_date' );
#7 = PERSON_AND_ORGANIZATION_ROLE( 'creator' );
#8 = PERSON_AND_ORGANIZATION_ROLE( 'design_supplier' );
#9 = PERSON_AND_ORGANIZATION_ROLE( 'classification_officer' );
#10 = PERSON_AND_ORGANIZATION_ROLE( 'design_owner' );
#11 = APPROVAL_PERSON_ORGANIZATION( #32, #33, #34 );
#12 = APPROVAL_DATE_TIME( #4, #33 );
#13 = CC_DESIGN_APPROVAL( #33, ( #35, #36, #37 ) );
#14 = CC_DESIGN_DATE_AND_TIME_ASSIGNMENT( #4, #5, ( #37 ) );
#15 = CC_DESIGN_DATE_AND_TIME_ASSIGNMENT( #4, #6, ( #35 ) );
#16 = CC_DESIGN_PERSON_AND_ORGANIZATION_ASSIGNMENT( #32, #10, ( #38 ) );
#17 = CC_DESIGN_PERSON_AND_ORGANIZATION_ASSIGNMENT( #32, #7, ( #37 ) );
#18 = CC_DESIGN_PERSON_AND_ORGANIZATION_ASSIGNMENT( #32, #7, ( #36 ) );
#19 = CC_DESIGN_PERSON_AND_ORGANIZATION_ASSIGNMENT( #32, #8, ( #36 ) );
#20 = CC_DESIGN_SECURITY_CLASSIFICATION( #35, ( #36 ) );
#21 = CC_DESIGN_PERSON_AND_ORGANIZATION_ASSIGNMENT( #32, #9, ( #35 ) );
#22 = SHAPE_DEFINITION_REPRESENTATION( #39, #40 );
#23 =  ( GEOMETRIC_REPRESENTATION_CONTEXT( 3 )GLOBAL_UNCERTAINTY_ASSIGNED_CONTEXT( ( #43 ) )GLOBAL_UNIT_ASSIGNED_CONTEXT( ( #45, #46, #47 ) )REPRESENTATION_CONTEXT( 'NONE', 'WORKSPACE' ) );
#27 = APPLICATION_CONTEXT( 'configuration controlled 3D designs of mechanical parts and assemblies' );
#28 = PRODUCT_CATEGORY( 'part', 'NONE' );
#29 = PRODUCT_RELATED_PRODUCT_CATEGORY( 'detail', ' ', ( #38 ) );
#30 = CALENDAR_DATE( 2020, 10, 2 );
#31 = LOCAL_TIME( 15, 21, 26.0000000000000, #49 );
#32 = PERSON_AND_ORGANIZATION( #50, #51 );
#33 = APPROVAL( #52, 'SOLID MODEL' );
#34 = APPROVAL_ROLE( 'APPROVED' );
#35 = SECURITY_CLASSIFICATION( '', '', #53 );
#36 = PRODUCT_DEFINITION_FORMATION_WITH_SPECIFIED_SOURCE( ' ', 'NONE', #38, .NOT_KNOWN. );
#37 = PRODUCT_DEFINITION( 'NONE', 'NONE', #36, #1 );
#38 = PRODUCT( '_FLEXA WIC-P 0512.100.009', '_FLEXA WIC-P 0512.100.009', 'PART-_FLEXA WIC-P 0512.100.009-DESC', ( #54 ) );
#39 = PRODUCT_DEFINITION_SHAPE( 'NONE', 'NONE', #37 );
#40 = ADVANCED_BREP_SHAPE_REPRESENTATION( '_FLEXA WIC-P 0512.100.009', ( #55, #56 ), #23 );
#43 = UNCERTAINTY_MEASURE_WITH_UNIT( LENGTH_MEASURE( 0.00100000000000000 ), #45, '', '' );
#45 =  ( CONVERSION_BASED_UNIT( 'MILLIMETRE', #59 )LENGTH_UNIT(  )NAMED_UNIT( #62 ) );
#46 =  ( NAMED_UNIT( #64 )PLANE_ANGLE_UNIT(  )SI_UNIT( $, .RADIAN. ) );
#47 =  ( NAMED_UNIT( #64 )SI_UNIT( $, .STERADIAN. )SOLID_ANGLE_UNIT(  ) );
#49 = COORDINATED_UNIVERSAL_TIME_OFFSET( 1, 0, .AHEAD. );
#50 = PERSON( '', 'UNSPECIFIED', $, $, $, $ );
#51 = ORGANIZATION( 'UNSPECIFIED', 'UNSPECIFIED', 'UNSPECIFIED' );
#52 = APPROVAL_STATUS( 'approved' );
#53 = SECURITY_CLASSIFICATION_LEVEL( 'unclassified' );
#54 = MECHANICAL_CONTEXT( '', #27, 'mechanical' );
#55 = MANIFOLD_SOLID_BREP( '_FLEXA WIC-P 0512.100.009', #70 );
#56 = AXIS2_PLACEMENT_3D( '', #71, #72, #73 );
#59 = LENGTH_MEASURE_WITH_UNIT( LENGTH_MEASURE( 1.00000000000000 ), #74 );
#62 = DIMENSIONAL_EXPONENTS( 1.00000000000000, 0.000000000000000, 0.000000000000000, 0.000000000000000, 0.000000000000000, 0.000000000000000, 0.000000000000000 );
#64 = DIMENSIONAL_EXPONENTS( 0.000000000000000, 0.000000000000000, 0.000000000000000, 0.000000000000000, 0.000000000000000, 0.000000000000000, 0.000000000000000 );
#70 = CLOSED_SHELL( '', ( #75, #76, #77, #78, #79, #80, #81, #82, #83, #84, #85, #86, #87, #88, #89, #90, #91 ) );
#71 = CARTESIAN_POINT( '', ( 0.000000000000000, 0.000000000000000, 0.000000000000000 ) );
#72 = DIRECTION( '', ( 0.000000000000000, 0.000000000000000, 1.00000000000000 ) );
#73 = DIRECTION( '', ( 1.00000000000000, 0.000000000000000, 0.000000000000000 ) );
#74 =  ( LENGTH_UNIT(  )NAMED_UNIT( #62 )SI_UNIT( .MILLI., .METRE. ) );
#75 = ADVANCED_FACE( '', ( #93, #94 ), #95, .T. );
#76 = ADVANCED_FACE( '', ( #96, #97 ), #98, .T. );
#77 = ADVANCED_FACE( '', ( #99, #100 ), #101, .T. );
#78 = ADVANCED_FACE( '', ( #102 ), #103, .T. );
#79 = ADVANCED_FACE( '', ( #104, #105 ), #106, .T. );
#80 = ADVANCED_FACE( '', ( #107, #108 ), #109, .F. );
#81 = ADVANCED_FACE( '', ( #110, #111 ), #112, .T. );
#82 = ADVANCED_FACE( '', ( #113, #114 ), #115, .T. );
#83 = ADVANCED_FACE( '', ( #116, #117 ), #118, .F. );
#84 = ADVANCED_FACE( '', ( #119, #120 ), #121, .F. );
#85 = ADVANCED_FACE( '', ( #122 ), #123, .F. );
#86 = ADVANCED_FACE( '', ( #124, #125 ), #126, .T. );
#87 = ADVANCED_FACE( '', ( #127, #128 ), #129, .F. );
#88 = ADVANCED_FACE( '', ( #130, #131, #132 ), #133, .T. );
#89 = ADVANCED_FACE( '', ( #134, #135 ), #136, .F. );
#90 = ADVANCED_FACE( '', ( #137 ), #138, .T. );
#91 = ADVANCED_FACE( '', ( #139, #140 ), #141, .T. );
#93 = FACE_OUTER_BOUND( '', #142, .T. );
#94 = FACE_BOUND( '', #143, .T. );
#95 = CONICAL_SURFACE( '', #144, 9.00000000000000, 0.785398163400000 );
#96 = FACE_BOUND( '', #145, .T. );
#97 = FACE_OUTER_BOUND( '', #146, .T. );
#98 = PLANE( '', #147 );
#99 = FACE_OUTER_BOUND( '', #148, .T. );
#100 = FACE_OUTER_BOUND( '', #149, .T. );
#101 = CYLINDRICAL_SURFACE( '', #150, 9.00000000000000 );
#102 = FACE_OUTER_BOUND( '', #151, .T. );
#103 = SPHERICAL_SURFACE( '', #152, 9.00000000000000 );
#104 = FACE_BOUND( '', #153, .T. );
#105 = FACE_OUTER_BOUND( '', #154, .T. );
#106 = PLANE( '', #155 );
#107 = FACE_OUTER_BOUND( '', #156, .T. );
#108 = FACE_OUTER_BOUND( '', #157, .T. );
#109 = CYLINDRICAL_SURFACE( '', #158, 7.26500000000000 );
#110 = FACE_OUTER_BOUND( '', #159, .T. );
#111 = FACE_BOUND( '', #160, .T. );
#112 = CONICAL_SURFACE( '', #161, 6.60000000000000, 0.785398163400000 );
#113 = FACE_OUTER_BOUND( '', #162, .T. );
#114 = FACE_OUTER_BOUND( '', #163, .T. );
#115 = CYLINDRICAL_SURFACE( '', #164, 7.60000000000000 );
#116 = FACE_OUTER_BOUND( '', #165, .T. );
#117 = FACE_OUTER_BOUND( '', #166, .T. );
#118 = CYLINDRICAL_SURFACE( '', #167, 5.75000000000000 );
#119 = FACE_OUTER_BOUND( '', #168, .T. );
#120 = FACE_OUTER_BOUND( '', #169, .T. );
#121 = CYLINDRICAL_SURFACE( '', #170, 5.75000000000000 );
#122 = FACE_OUTER_BOUND( '', #171, .T. );
#123 = SPHERICAL_SURFACE( '', #172, 5.75000000000000 );
#124 = FACE_OUTER_BOUND( '', #173, .T. );
#125 = FACE_BOUND( '', #174, .T. );
#126 = PLANE( '', #175 );
#127 = FACE_OUTER_BOUND( '', #176, .T. );
#128 = FACE_BOUND( '', #177, .T. );
#129 = CONICAL_SURFACE( '', #178, 6.93000000000000, 0.785398163400000 );
#130 = FACE_BOUND( '', #179, .T. );
#131 = FACE_OUTER_BOUND( '', #180, .T. );
#132 = FACE_OUTER_BOUND( '', #181, .T. );
#133 = TOROIDAL_SURFACE( '', #182, 8.35000000000000, 0.750000000000000 );
#134 = FACE_OUTER_BOUND( '', #183, .T. );
#135 = FACE_BOUND( '', #184, .T. );
#136 = PLANE( '', #185 );
#137 = FACE_OUTER_BOUND( '', #186, .T. );
#138 = CYLINDRICAL_SURFACE( '', #187, 9.00000000000000 );
#139 = FACE_OUTER_BOUND( '', #188, .T. );
#140 = FACE_OUTER_BOUND( '', #189, .T. );
#141 = CYLINDRICAL_SURFACE( '', #190, 9.75000000000000 );
#142 = EDGE_LOOP( '', ( #191 ) );
#143 = EDGE_LOOP( '', ( #192, #193 ) );
#144 = AXIS2_PLACEMENT_3D( '', #194, #195, #196 );
#145 = EDGE_LOOP( '', ( #197 ) );
#146 = EDGE_LOOP( '', ( #198 ) );
#147 = AXIS2_PLACEMENT_3D( '', #199, #200, #201 );
#148 = EDGE_LOOP( '', ( #202 ) );
#149 = EDGE_LOOP( '', ( #203, #204, #205, #206 ) );
#150 = AXIS2_PLACEMENT_3D( '', #207, #208, #209 );
#151 = EDGE_LOOP( '', ( #210, #211 ) );
#152 = AXIS2_PLACEMENT_3D( '', #212, #213, #214 );
#153 = EDGE_LOOP( '', ( #215 ) );
#154 = EDGE_LOOP( '', ( #216 ) );
#155 = AXIS2_PLACEMENT_3D( '', #217, #218, #219 );
#156 = EDGE_LOOP( '', ( #220 ) );
#157 = EDGE_LOOP( '', ( #221 ) );
#158 = AXIS2_PLACEMENT_3D( '', #222, #223, #224 );
#159 = EDGE_LOOP( '', ( #225 ) );
#160 = EDGE_LOOP( '', ( #226 ) );
#161 = AXIS2_PLACEMENT_3D( '', #227, #228, #229 );
#162 = EDGE_LOOP( '', ( #230 ) );
#163 = EDGE_LOOP( '', ( #231 ) );
#164 = AXIS2_PLACEMENT_3D( '', #232, #233, #234 );
#165 = EDGE_LOOP( '', ( #235, #236 ) );
#166 = EDGE_LOOP( '', ( #237 ) );
#167 = AXIS2_PLACEMENT_3D( '', #238, #239, #240 );
#168 = EDGE_LOOP( '', ( #241, #242 ) );
#169 = EDGE_LOOP( '', ( #243 ) );
#170 = AXIS2_PLACEMENT_3D( '', #244, #245, #246 );
#171 = EDGE_LOOP( '', ( #247, #248 ) );
#172 = AXIS2_PLACEMENT_3D( '', #249, #250, #251 );
#173 = EDGE_LOOP( '', ( #252 ) );
#174 = EDGE_LOOP( '', ( #253 ) );
#175 = AXIS2_PLACEMENT_3D( '', #254, #255, #256 );
#176 = EDGE_LOOP( '', ( #257 ) );
#177 = EDGE_LOOP( '', ( #258 ) );
#178 = AXIS2_PLACEMENT_3D( '', #259, #260, #261 );
#179 = VERTEX_LOOP( '', #262 );
#180 = EDGE_LOOP( '', ( #263 ) );
#181 = EDGE_LOOP( '', ( #264 ) );
#182 = AXIS2_PLACEMENT_3D( '', #265, #266, #267 );
#183 = EDGE_LOOP( '', ( #268 ) );
#184 = EDGE_LOOP( '', ( #269 ) );
#185 = AXIS2_PLACEMENT_3D( '', #270, #271, #272 );
#186 = EDGE_LOOP( '', ( #273, #274, #275, #276 ) );
#187 = AXIS2_PLACEMENT_3D( '', #277, #278, #279 );
#188 = EDGE_LOOP( '', ( #280 ) );
#189 = EDGE_LOOP( '', ( #281 ) );
#190 = AXIS2_PLACEMENT_3D( '', #282, #283, #284 );
#191 = ORIENTED_EDGE( '', *, *, #285, .T. );
#192 = ORIENTED_EDGE( '', *, *, #286, .F. );
#193 = ORIENTED_EDGE( '', *, *, #287, .F. );
#194 = CARTESIAN_POINT( '', ( 0.000000000000000, -2.25000000000000, 0.000000000000000 ) );
#195 = DIRECTION( '', ( 0.000000000000000, -1.00000000000000, -0.000000000000000 ) );
#196 = DIRECTION( '', ( 0.000000000000000, 0.000000000000000, -1.00000000000000 ) );
#197 = ORIENTED_EDGE( '', *, *, #288, .F. );
#198 = ORIENTED_EDGE( '', *, *, #289, .T. );
#199 = CARTESIAN_POINT( '', ( 19.0000000000000, 6.50000000000000, 0.000000000000000 ) );
#200 = DIRECTION( '', ( 1.00000000000000, 0.000000000000000, 0.000000000000000 ) );
#201 = DIRECTION( '', ( 0.000000000000000, 0.000000000000000, -1.00000000000000 ) );
#202 = ORIENTED_EDGE( '', *, *, #289, .F. );
#203 = ORIENTED_EDGE( '', *, *, #290, .T. );
#204 = ORIENTED_EDGE( '', *, *, #286, .T. );
#205 = ORIENTED_EDGE( '', *, *, #291, .T. );
#206 = ORIENTED_EDGE( '', *, *, #292, .F. );
#207 = CARTESIAN_POINT( '', ( 19.0000000000000, 6.50000000000000, 0.000000000000000 ) );
#208 = DIRECTION( '', ( 1.00000000000000, -0.000000000000000, -0.000000000000000 ) );
#209 = DIRECTION( '', ( 0.000000000000000, 0.000000000000000, 1.00000000000000 ) );
#210 = ORIENTED_EDGE( '', *, *, #292, .T. );
#211 = ORIENTED_EDGE( '', *, *, #293, .T. );
#212 = CARTESIAN_POINT( '', ( 8.67361737988404E-16, 6.50000000000000, 0.000000000000000 ) );
#213 = DIRECTION( '', ( 0.000000000000000, 1.00000000000000, 0.000000000000000 ) );
#214 = DIRECTION( '', ( -1.00000000000000, 0.000000000000000, 0.000000000000000 ) );
#215 = ORIENTED_EDGE( '', *, *, #294, .T. );
#216 = ORIENTED_EDGE( '', *, *, #295, .F. );
#217 = CARTESIAN_POINT( '', ( -9.75000000000000, -4.50000000000000, 0.000000000000000 ) );
#218 = DIRECTION( '', ( 0.000000000000000, -1.00000000000000, 0.000000000000000 ) );
#219 = DIRECTION( '', ( 0.000000000000000, 0.000000000000000, -1.00000000000000 ) );
#220 = ORIENTED_EDGE( '', *, *, #296, .T. );
#221 = ORIENTED_EDGE( '', *, *, #297, .F. );
#222 = CARTESIAN_POINT( '', ( 19.0000000000000, 6.50000000000000, 0.000000000000000 ) );
#223 = DIRECTION( '', ( -1.00000000000000, -0.000000000000000, 0.000000000000000 ) );
#224 = DIRECTION( '', ( -0.000000000000000, 0.000000000000000, -1.00000000000000 ) );
#225 = ORIENTED_EDGE( '', *, *, #298, .F. );
#226 = ORIENTED_EDGE( '', *, *, #299, .T. );
#227 = CARTESIAN_POINT( '', ( 0.000000000000000, -15.5000000000000, 0.000000000000000 ) );
#228 = DIRECTION( '', ( -0.000000000000000, 1.00000000000000, -0.000000000000000 ) );
#229 = DIRECTION( '', ( 0.000000000000000, 0.000000000000000, 1.00000000000000 ) );
#230 = ORIENTED_EDGE( '', *, *, #300, .F. );
#231 = ORIENTED_EDGE( '', *, *, #298, .T. );
#232 = CARTESIAN_POINT( '', ( 0.000000000000000, 50.0000000000000, 0.000000000000000 ) );
#233 = DIRECTION( '', ( 0.000000000000000, -1.00000000000000, -0.000000000000000 ) );
#234 = DIRECTION( '', ( 0.000000000000000, 0.000000000000000, 1.00000000000000 ) );
#235 = ORIENTED_EDGE( '', *, *, #301, .F. );
#236 = ORIENTED_EDGE( '', *, *, #302, .T. );
#237 = ORIENTED_EDGE( '', *, *, #303, .T. );
#238 = CARTESIAN_POINT( '', ( 28.0000000000000, 6.50000000000000, 0.000000000000000 ) );
#239 = DIRECTION( '', ( 1.00000000000000, -0.000000000000000, -0.000000000000000 ) );
#240 = DIRECTION( '', ( 0.000000000000000, 0.000000000000000, 1.00000000000000 ) );
#241 = ORIENTED_EDGE( '', *, *, #304, .T. );
#242 = ORIENTED_EDGE( '', *, *, #302, .F. );
#243 = ORIENTED_EDGE( '', *, *, #305, .F. );
#244 = CARTESIAN_POINT( '', ( 0.000000000000000, 6.50000000000000, 0.000000000000000 ) );
#245 = DIRECTION( '', ( -0.000000000000000, 1.00000000000000, 0.000000000000000 ) );
#246 = DIRECTION( '', ( 0.000000000000000, 0.000000000000000, -1.00000000000000 ) );
#247 = ORIENTED_EDGE( '', *, *, #301, .T. );
#248 = ORIENTED_EDGE( '', *, *, #304, .F. );
#249 = CARTESIAN_POINT( '', ( 0.000000000000000, 6.50000000000000, -4.33680868994202E-16 ) );
#250 = DIRECTION( '', ( 0.000000000000000, 0.000000000000000, -1.00000000000000 ) );
#251 = DIRECTION( '', ( 0.000000000000000, -1.00000000000000, 0.000000000000000 ) );
#252 = ORIENTED_EDGE( '', *, *, #297, .T. );
#253 = ORIENTED_EDGE( '', *, *, #303, .F. );
#254 = CARTESIAN_POINT( '', ( 11.0000000000000, 6.50000000000000, 0.000000000000000 ) );
#255 = DIRECTION( '', ( 1.00000000000000, 0.000000000000000, -0.000000000000000 ) );
#256 = DIRECTION( '', ( -0.000000000000000, 0.000000000000000, -1.00000000000000 ) );
#257 = ORIENTED_EDGE( '', *, *, #288, .T. );
#258 = ORIENTED_EDGE( '', *, *, #296, .F. );
#259 = CARTESIAN_POINT( '', ( 17.9999999999999, 6.50000000000000, 0.000000000000000 ) );
#260 = DIRECTION( '', ( 1.00000000000000, -7.80625564189576E-15, -0.000000000000000 ) );
#261 = DIRECTION( '', ( 7.80625564189576E-15, 1.00000000000000, 0.000000000000000 ) );
#262 = VERTEX_POINT( '', #306 );
#263 = ORIENTED_EDGE( '', *, *, #300, .T. );
#264 = ORIENTED_EDGE( '', *, *, #294, .F. );
#265 = CARTESIAN_POINT( '', ( 0.000000000000000, -5.25000000000000, 0.000000000000000 ) );
#266 = DIRECTION( '', ( -0.000000000000000, 1.00000000000000, 0.000000000000000 ) );
#267 = DIRECTION( '', ( 0.000000000000000, 0.000000000000000, 1.00000000000000 ) );
#268 = ORIENTED_EDGE( '', *, *, #299, .F. );
#269 = ORIENTED_EDGE( '', *, *, #305, .T. );
#270 = CARTESIAN_POINT( '', ( 0.000000000000000, -15.5000000000000, 0.000000000000000 ) );
#271 = DIRECTION( '', ( -0.000000000000000, 1.00000000000000, 0.000000000000000 ) );
#272 = DIRECTION( '', ( 0.000000000000000, 0.000000000000000, 1.00000000000000 ) );
#273 = ORIENTED_EDGE( '', *, *, #291, .F. );
#274 = ORIENTED_EDGE( '', *, *, #287, .T. );
#275 = ORIENTED_EDGE( '', *, *, #290, .F. );
#276 = ORIENTED_EDGE( '', *, *, #293, .F. );
#277 = CARTESIAN_POINT( '', ( 0.000000000000000, 15.5000000000000, 0.000000000000000 ) );
#278 = DIRECTION( '', ( 0.000000000000000, -1.00000000000000, -0.000000000000000 ) );
#279 = DIRECTION( '', ( 0.000000000000000, 0.000000000000000, 1.00000000000000 ) );
#280 = ORIENTED_EDGE( '', *, *, #295, .T. );
#281 = ORIENTED_EDGE( '', *, *, #285, .F. );
#282 = CARTESIAN_POINT( '', ( 0.000000000000000, 50.0000000000000, 0.000000000000000 ) );
#283 = DIRECTION( '', ( 0.000000000000000, -1.00000000000000, -0.000000000000000 ) );
#284 = DIRECTION( '', ( 0.000000000000000, 0.000000000000000, 1.00000000000000 ) );
#285 = EDGE_CURVE( '', #307, #307, #308, .T. );
#286 = EDGE_CURVE( '', #309, #310, #311, .T. );
#287 = EDGE_CURVE( '', #310, #309, #312, .T. );
#288 = EDGE_CURVE( '', #313, #313, #314, .T. );
#289 = EDGE_CURVE( '', #315, #315, #316, .T. );
#290 = EDGE_CURVE( '', #317, #309, #318, .T. );
#291 = EDGE_CURVE( '', #310, #319, #320, .T. );
#292 = EDGE_CURVE( '', #317, #319, #321, .F. );
#293 = EDGE_CURVE( '', #319, #317, #322, .T. );
#294 = EDGE_CURVE( '', #323, #323, #324, .T. );
#295 = EDGE_CURVE( '', #325, #325, #326, .T. );
#296 = EDGE_CURVE( '', #327, #327, #328, .T. );
#297 = EDGE_CURVE( '', #329, #329, #330, .T. );
#298 = EDGE_CURVE( '', #331, #331, #332, .T. );
#299 = EDGE_CURVE( '', #333, #333, #334, .T. );
#300 = EDGE_CURVE( '', #335, #335, #336, .T. );
#301 = EDGE_CURVE( '', #337, #338, #339, .T. );
#302 = EDGE_CURVE( '', #337, #338, #340, .T. );
#303 = EDGE_CURVE( '', #341, #341, #342, .T. );
#304 = EDGE_CURVE( '', #337, #338, #343, .T. );
#305 = EDGE_CURVE( '', #344, #344, #345, .T. );
#306 = CARTESIAN_POINT( '', ( 0.000000000000000, -5.25000000000000, 9.10000000000000 ) );
#307 = VERTEX_POINT( '', #346 );
#308 = CIRCLE( '', #347, 9.75000000000000 );
#309 = VERTEX_POINT( '', #348 );
#310 = VERTEX_POINT( '', #349 );
#311 = B_SPLINE_CURVE_WITH_KNOTS( '', 3, ( #350, #351, #352, #353, #354, #355, #356, #357, #358, #359, #360, #361 ), .UNSPECIFIED., .F., .F., ( 4, 2, 2, 2, 2, 4 ), ( 0.000115748745850422, 0.00121242238923014, 0.00176075921092000, 0.00230909603260986, 0.00340576967598958, 0.00450244331936930 ), .UNSPECIFIED. );
#312 = CIRCLE( '', #362, 9.00000000000000 );
#313 = VERTEX_POINT( '', #363 );
#314 = CIRCLE( '', #364, 7.93000000000000 );
#315 = VERTEX_POINT( '', #365 );
#316 = CIRCLE( '', #366, 9.00000000000000 );
#317 = VERTEX_POINT( '', #367 );
#318 = ELLIPSE( '', #368, 12.7279220614000, 9.00000000000000 );
#319 = VERTEX_POINT( '', #369 );
#320 = ELLIPSE( '', #370, 12.7279220614000, 9.00000000000000 );
#321 = CIRCLE( '', #371, 9.00000000000000 );
#322 = CIRCLE( '', #372, 9.00000000000000 );
#323 = VERTEX_POINT( '', #373 );
#324 = CIRCLE( '', #374, 8.35000000000000 );
#325 = VERTEX_POINT( '', #375 );
#326 = CIRCLE( '', #376, 9.75000000000000 );
#327 = VERTEX_POINT( '', #377 );
#328 = CIRCLE( '', #378, 7.26500000000000 );
#329 = VERTEX_POINT( '', #379 );
#330 = CIRCLE( '', #380, 7.26500000000000 );
#331 = VERTEX_POINT( '', #381 );
#332 = CIRCLE( '', #382, 7.60000000000000 );
#333 = VERTEX_POINT( '', #383 );
#334 = CIRCLE( '', #384, 6.60000000000000 );
#335 = VERTEX_POINT( '', #385 );
#336 = CIRCLE( '', #386, 7.60000000000000 );
#337 = VERTEX_POINT( '', #387 );
#338 = VERTEX_POINT( '', #388 );
#339 = CIRCLE( '', #389, 5.75000000000000 );
#340 = ELLIPSE( '', #390, 8.13172798360000, 5.75000000000000 );
#341 = VERTEX_POINT( '', #391 );
#342 = CIRCLE( '', #392, 5.75000000000000 );
#343 = CIRCLE( '', #393, 5.75000000000000 );
#344 = VERTEX_POINT( '', #394 );
#345 = CIRCLE( '', #395, 5.75000000000000 );
#346 = CARTESIAN_POINT( '', ( 0.000000000000000, -3.00000000000000, 9.75000000000000 ) );
#347 = AXIS2_PLACEMENT_3D( '', #396, #397, #398 );
#348 = CARTESIAN_POINT( '', ( 8.75000000000000, -2.25000000000000, 2.10653744329409 ) );
#349 = CARTESIAN_POINT( '', ( 8.75000000000000, -2.25000000000000, -2.10653744329408 ) );
#350 = CARTESIAN_POINT( '', ( 8.75000000000001, -2.25000000000001, 2.10653744329409 ) );
#351 = CARTESIAN_POINT( '', ( 8.90813810630620, -2.32795540451714, 1.78273128846103 ) );
#352 = CARTESIAN_POINT( '', ( 9.03284251337315, -2.39046855748327, 1.44472792864800 ) );
#353 = CARTESIAN_POINT( '', ( 9.16181536165889, -2.45538267114231, 0.912709539370267 ) );
#354 = CARTESIAN_POINT( '', ( 9.19504535861625, -2.47218018007202, 0.730165578901821 ) );
#355 = CARTESIAN_POINT( '', ( 9.23890543684704, -2.49437193510008, 0.366650309388019 ) );
#356 = CARTESIAN_POINT( '', ( 9.24990782830803, -2.49995328284247, 0.184611527752626 ) );
#357 = CARTESIAN_POINT( '', ( 9.25018261636090, -2.50009255897464, -0.362347854958963 ) );
#358 = CARTESIAN_POINT( '', ( 9.20509325172204, -2.47716690342280, -0.733136054614905 ) );
#359 = CARTESIAN_POINT( '', ( 9.03407143526747, -2.39108533677859, -1.44069969827399 ) );
#360 = CARTESIAN_POINT( '', ( 8.90867754241111, -2.32822132372379, -1.78162673033148 ) );
#361 = CARTESIAN_POINT( '', ( 8.75000000000000, -2.25000000000000, -2.10653744329408 ) );
#362 = AXIS2_PLACEMENT_3D( '', #399, #400, #401 );
#363 = CARTESIAN_POINT( '', ( 19.0000000000000, 14.4300000000000, 0.000000000000000 ) );
#364 = AXIS2_PLACEMENT_3D( '', #402, #403, #404 );
#365 = CARTESIAN_POINT( '', ( 19.0000000000000, 6.50000000000000, -9.00000000000000 ) );
#366 = AXIS2_PLACEMENT_3D( '', #405, #406, #407 );
#367 = CARTESIAN_POINT( '', ( 0.000000000000000, 6.50000000000000, 9.00000000000000 ) );
#368 = AXIS2_PLACEMENT_3D( '', #408, #409, #410 );
#369 = CARTESIAN_POINT( '', ( 0.000000000000000, 6.50000000000000, -9.00000000000000 ) );
#370 = AXIS2_PLACEMENT_3D( '', #411, #412, #413 );
#371 = AXIS2_PLACEMENT_3D( '', #414, #415, #416 );
#372 = AXIS2_PLACEMENT_3D( '', #417, #418, #419 );
#373 = CARTESIAN_POINT( '', ( 0.000000000000000, -4.50000000000000, 8.35000000000000 ) );
#374 = AXIS2_PLACEMENT_3D( '', #420, #421, #422 );
#375 = CARTESIAN_POINT( '', ( 0.000000000000000, -4.50000000000000, 9.75000000000000 ) );
#376 = AXIS2_PLACEMENT_3D( '', #423, #424, #425 );
#377 = CARTESIAN_POINT( '', ( 18.3350000000000, 13.7650000000000, 0.000000000000000 ) );
#378 = AXIS2_PLACEMENT_3D( '', #426, #427, #428 );
#379 = CARTESIAN_POINT( '', ( 11.0000000000000, 6.50000000000000, -7.26500000000000 ) );
#380 = AXIS2_PLACEMENT_3D( '', #429, #430, #431 );
#381 = CARTESIAN_POINT( '', ( 0.000000000000000, -14.5000000000000, 7.60000000000000 ) );
#382 = AXIS2_PLACEMENT_3D( '', #432, #433, #434 );
#383 = CARTESIAN_POINT( '', ( 0.000000000000000, -15.5000000000000, 6.60000000000000 ) );
#384 = AXIS2_PLACEMENT_3D( '', #435, #436, #437 );
#385 = CARTESIAN_POINT( '', ( 0.000000000000000, -5.25000000000000, 7.60000000000000 ) );
#386 = AXIS2_PLACEMENT_3D( '', #438, #439, #440 );
#387 = CARTESIAN_POINT( '', ( 0.000000000000000, 6.50000000000000, -5.75000000000000 ) );
#388 = CARTESIAN_POINT( '', ( 0.000000000000000, 6.50000000000000, 5.75000000000000 ) );
#389 = AXIS2_PLACEMENT_3D( '', #441, #442, #443 );
#390 = AXIS2_PLACEMENT_3D( '', #444, #445, #446 );
#391 = CARTESIAN_POINT( '', ( 11.0000000000000, 6.50000000000000, -5.75000000000000 ) );
#392 = AXIS2_PLACEMENT_3D( '', #447, #448, #449 );
#393 = AXIS2_PLACEMENT_3D( '', #450, #451, #452 );
#394 = CARTESIAN_POINT( '', ( 5.75000000000000, -15.5000000000000, 0.000000000000000 ) );
#395 = AXIS2_PLACEMENT_3D( '', #453, #454, #455 );
#396 = CARTESIAN_POINT( '', ( 0.000000000000000, -3.00000000000000, 0.000000000000000 ) );
#397 = DIRECTION( '', ( -0.000000000000000, 1.00000000000000, 0.000000000000000 ) );
#398 = DIRECTION( '', ( 0.000000000000000, 0.000000000000000, 1.00000000000000 ) );
#399 = CARTESIAN_POINT( '', ( 0.000000000000000, -2.25000000000000, 0.000000000000000 ) );
#400 = DIRECTION( '', ( -0.000000000000000, 1.00000000000000, 0.000000000000000 ) );
#401 = DIRECTION( '', ( 0.000000000000000, 0.000000000000000, 1.00000000000000 ) );
#402 = CARTESIAN_POINT( '', ( 18.9999999999999, 6.49999999999999, 0.000000000000000 ) );
#403 = DIRECTION( '', ( 1.00000000000000, -7.80625564189576E-15, -0.000000000000000 ) );
#404 = DIRECTION( '', ( 7.80625564189576E-15, 1.00000000000000, 0.000000000000000 ) );
#405 = CARTESIAN_POINT( '', ( 19.0000000000000, 6.50000000000000, 0.000000000000000 ) );
#406 = DIRECTION( '', ( 1.00000000000000, 0.000000000000000, 0.000000000000000 ) );
#407 = DIRECTION( '', ( 0.000000000000000, 0.000000000000000, -1.00000000000000 ) );
#408 = CARTESIAN_POINT( '', ( 0.000000000000000, 6.50000000000000, 0.000000000000000 ) );
#409 = DIRECTION( '', ( 0.707106781186548, 0.707106781186548, 0.000000000000000 ) );
#410 = DIRECTION( '', ( -0.707106781186548, 0.707106781186548, -0.000000000000000 ) );
#411 = CARTESIAN_POINT( '', ( 0.000000000000000, 6.50000000000000, 0.000000000000000 ) );
#412 = DIRECTION( '', ( 0.707106781186548, 0.707106781186548, 0.000000000000000 ) );
#413 = DIRECTION( '', ( -0.707106781186548, 0.707106781186548, -0.000000000000000 ) );
#414 = CARTESIAN_POINT( '', ( 0.000000000000000, 6.50000000000000, 0.000000000000000 ) );
#415 = DIRECTION( '', ( 1.00000000000000, 0.000000000000000, 0.000000000000000 ) );
#416 = DIRECTION( '', ( 0.000000000000000, 0.000000000000000, -1.00000000000000 ) );
#417 = CARTESIAN_POINT( '', ( 0.000000000000000, 6.50000000000000, 0.000000000000000 ) );
#418 = DIRECTION( '', ( -0.000000000000000, 1.00000000000000, 0.000000000000000 ) );
#419 = DIRECTION( '', ( 0.000000000000000, 0.000000000000000, 1.00000000000000 ) );
#420 = CARTESIAN_POINT( '', ( 0.000000000000000, -4.50000000000000, 0.000000000000000 ) );
#421 = DIRECTION( '', ( -0.000000000000000, 1.00000000000000, 0.000000000000000 ) );
#422 = DIRECTION( '', ( 0.000000000000000, 0.000000000000000, 1.00000000000000 ) );
#423 = CARTESIAN_POINT( '', ( 0.000000000000000, -4.50000000000000, 0.000000000000000 ) );
#424 = DIRECTION( '', ( -0.000000000000000, 1.00000000000000, 0.000000000000000 ) );
#425 = DIRECTION( '', ( 0.000000000000000, 0.000000000000000, 1.00000000000000 ) );
#426 = CARTESIAN_POINT( '', ( 18.3349999999999, 6.50000000000000, 0.000000000000000 ) );
#427 = DIRECTION( '', ( 1.00000000000000, -7.80625564189576E-15, -0.000000000000000 ) );
#428 = DIRECTION( '', ( 7.80625564189576E-15, 1.00000000000000, 0.000000000000000 ) );
#429 = CARTESIAN_POINT( '', ( 11.0000000000000, 6.50000000000000, 0.000000000000000 ) );
#430 = DIRECTION( '', ( 1.00000000000000, 0.000000000000000, -0.000000000000000 ) );
#431 = DIRECTION( '', ( -0.000000000000000, 0.000000000000000, -1.00000000000000 ) );
#432 = CARTESIAN_POINT( '', ( 0.000000000000000, -14.5000000000000, 0.000000000000000 ) );
#433 = DIRECTION( '', ( -0.000000000000000, 1.00000000000000, 0.000000000000000 ) );
#434 = DIRECTION( '', ( 0.000000000000000, 0.000000000000000, 1.00000000000000 ) );
#435 = CARTESIAN_POINT( '', ( 0.000000000000000, -15.5000000000000, 0.000000000000000 ) );
#436 = DIRECTION( '', ( -0.000000000000000, 1.00000000000000, 0.000000000000000 ) );
#437 = DIRECTION( '', ( 0.000000000000000, 0.000000000000000, 1.00000000000000 ) );
#438 = CARTESIAN_POINT( '', ( 0.000000000000000, -5.25000000000000, 0.000000000000000 ) );
#439 = DIRECTION( '', ( -0.000000000000000, 1.00000000000000, 0.000000000000000 ) );
#440 = DIRECTION( '', ( 0.000000000000000, 0.000000000000000, 1.00000000000000 ) );
#441 = CARTESIAN_POINT( '', ( 0.000000000000000, 6.50000000000000, 0.000000000000000 ) );
#442 = DIRECTION( '', ( 1.00000000000000, 0.000000000000000, 0.000000000000000 ) );
#443 = DIRECTION( '', ( 0.000000000000000, 0.000000000000000, -1.00000000000000 ) );
#444 = CARTESIAN_POINT( '', ( 0.000000000000000, 6.50000000000000, 0.000000000000000 ) );
#445 = DIRECTION( '', ( -0.707106781186548, -0.707106781186548, -0.000000000000000 ) );
#446 = DIRECTION( '', ( -0.707106781186547, 0.707106781186547, 0.000000000000000 ) );
#447 = CARTESIAN_POINT( '', ( 11.0000000000000, 6.50000000000000, 0.000000000000000 ) );
#448 = DIRECTION( '', ( 1.00000000000000, 0.000000000000000, -0.000000000000000 ) );
#449 = DIRECTION( '', ( -0.000000000000000, 0.000000000000000, -1.00000000000000 ) );
#450 = CARTESIAN_POINT( '', ( 0.000000000000000, 6.50000000000000, 0.000000000000000 ) );
#451 = DIRECTION( '', ( -0.000000000000000, 1.00000000000000, 0.000000000000000 ) );
#452 = DIRECTION( '', ( 1.00000000000000, 0.000000000000000, 0.000000000000000 ) );
#453 = CARTESIAN_POINT( '', ( 0.000000000000000, -15.5000000000000, 0.000000000000000 ) );
#454 = DIRECTION( '', ( -0.000000000000000, 1.00000000000000, 0.000000000000000 ) );
#455 = DIRECTION( '', ( 1.00000000000000, 0.000000000000000, 0.000000000000000 ) );
ENDSEC;
END-ISO-10303-21;
