ISO-10303-21;
HEADER;
FILE_DESCRIPTION( ( 'STEP AP203' ), '1' );
FILE_NAME( 'p:/temp/worker_92/temp/exporttempdir_488_761_RptdT/format_0/FLEXA WIC-P 0512.100.011.stp', '2020-03-10T14:21:55', ( '' ), ( '' ), ' ', 'PARTsolutions', ' ' );
FILE_SCHEMA( ( 'CONFIG_CONTROL_DESIGN' ) );
ENDSEC;
DATA;
#1 = DESIGN_CONTEXT( '', #27, 'design' );
#2 = APPLICATION_PROTOCOL_DEFINITION( 'international standard', 'config_control_design', 1994, #27 );
#3 = PRODUCT_CATEGORY_RELATIONSHIP( 'NONE', 'NONE', #28, #29 );
#4 = DATE_AND_TIME( #30, #31 );
#5 = DATE_TIME_ROLE( 'creation_date' );
#6 = DATE_TIME_ROLE( 'classification_date' );
#7 = PERSON_AND_ORGANIZATION_ROLE( 'creator' );
#8 = PERSON_AND_ORGANIZATION_ROLE( 'design_supplier' );
#9 = PERSON_AND_ORGANIZATION_ROLE( 'classification_officer' );
#10 = PERSON_AND_ORGANIZATION_ROLE( 'design_owner' );
#11 = APPROVAL_PERSON_ORGANIZATION( #32, #33, #34 );
#12 = APPROVAL_DATE_TIME( #4, #33 );
#13 = CC_DESIGN_APPROVAL( #33, ( #35, #36, #37 ) );
#14 = CC_DESIGN_DATE_AND_TIME_ASSIGNMENT( #4, #5, ( #37 ) );
#15 = CC_DESIGN_DATE_AND_TIME_ASSIGNMENT( #4, #6, ( #35 ) );
#16 = CC_DESIGN_PERSON_AND_ORGANIZATION_ASSIGNMENT( #32, #10, ( #38 ) );
#17 = CC_DESIGN_PERSON_AND_ORGANIZATION_ASSIGNMENT( #32, #7, ( #37 ) );
#18 = CC_DESIGN_PERSON_AND_ORGANIZATION_ASSIGNMENT( #32, #7, ( #36 ) );
#19 = CC_DESIGN_PERSON_AND_ORGANIZATION_ASSIGNMENT( #32, #8, ( #36 ) );
#20 = CC_DESIGN_SECURITY_CLASSIFICATION( #35, ( #36 ) );
#21 = CC_DESIGN_PERSON_AND_ORGANIZATION_ASSIGNMENT( #32, #9, ( #35 ) );
#22 = SHAPE_DEFINITION_REPRESENTATION( #39, #40 );
#23 =  ( GEOMETRIC_REPRESENTATION_CONTEXT( 3 )GLOBAL_UNCERTAINTY_ASSIGNED_CONTEXT( ( #43 ) )GLOBAL_UNIT_ASSIGNED_CONTEXT( ( #45, #46, #47 ) )REPRESENTATION_CONTEXT( 'NONE', 'WORKSPACE' ) );
#27 = APPLICATION_CONTEXT( 'configuration controlled 3D designs of mechanical parts and assemblies' );
#28 = PRODUCT_CATEGORY( 'part', 'NONE' );
#29 = PRODUCT_RELATED_PRODUCT_CATEGORY( 'detail', ' ', ( #38 ) );
#30 = CALENDAR_DATE( 2020, 10, 2 );
#31 = LOCAL_TIME( 15, 21, 55.0000000000000, #49 );
#32 = PERSON_AND_ORGANIZATION( #50, #51 );
#33 = APPROVAL( #52, 'SOLID MODEL' );
#34 = APPROVAL_ROLE( 'APPROVED' );
#35 = SECURITY_CLASSIFICATION( '', '', #53 );
#36 = PRODUCT_DEFINITION_FORMATION_WITH_SPECIFIED_SOURCE( ' ', 'NONE', #38, .NOT_KNOWN. );
#37 = PRODUCT_DEFINITION( 'NONE', 'NONE', #36, #1 );
#38 = PRODUCT( '_FLEXA WIC-P 0512.100.011', '_FLEXA WIC-P 0512.100.011', 'PART-_FLEXA WIC-P 0512.100.011-DESC', ( #54 ) );
#39 = PRODUCT_DEFINITION_SHAPE( 'NONE', 'NONE', #37 );
#40 = ADVANCED_BREP_SHAPE_REPRESENTATION( '_FLEXA WIC-P 0512.100.011', ( #55, #56 ), #23 );
#43 = UNCERTAINTY_MEASURE_WITH_UNIT( LENGTH_MEASURE( 0.00100000000000000 ), #45, '', '' );
#45 =  ( CONVERSION_BASED_UNIT( 'MILLIMETRE', #59 )LENGTH_UNIT(  )NAMED_UNIT( #62 ) );
#46 =  ( NAMED_UNIT( #64 )PLANE_ANGLE_UNIT(  )SI_UNIT( $, .RADIAN. ) );
#47 =  ( NAMED_UNIT( #64 )SI_UNIT( $, .STERADIAN. )SOLID_ANGLE_UNIT(  ) );
#49 = COORDINATED_UNIVERSAL_TIME_OFFSET( 1, 0, .AHEAD. );
#50 = PERSON( '', 'UNSPECIFIED', $, $, $, $ );
#51 = ORGANIZATION( 'UNSPECIFIED', 'UNSPECIFIED', 'UNSPECIFIED' );
#52 = APPROVAL_STATUS( 'approved' );
#53 = SECURITY_CLASSIFICATION_LEVEL( 'unclassified' );
#54 = MECHANICAL_CONTEXT( '', #27, 'mechanical' );
#55 = MANIFOLD_SOLID_BREP( '_FLEXA WIC-P 0512.100.011', #70 );
#56 = AXIS2_PLACEMENT_3D( '', #71, #72, #73 );
#59 = LENGTH_MEASURE_WITH_UNIT( LENGTH_MEASURE( 1.00000000000000 ), #74 );
#62 = DIMENSIONAL_EXPONENTS( 1.00000000000000, 0.000000000000000, 0.000000000000000, 0.000000000000000, 0.000000000000000, 0.000000000000000, 0.000000000000000 );
#64 = DIMENSIONAL_EXPONENTS( 0.000000000000000, 0.000000000000000, 0.000000000000000, 0.000000000000000, 0.000000000000000, 0.000000000000000, 0.000000000000000 );
#70 = CLOSED_SHELL( '', ( #75, #76, #77, #78, #79, #80, #81, #82, #83, #84, #85, #86, #87, #88, #89, #90, #91 ) );
#71 = CARTESIAN_POINT( '', ( 0.000000000000000, 0.000000000000000, 0.000000000000000 ) );
#72 = DIRECTION( '', ( 0.000000000000000, 0.000000000000000, 1.00000000000000 ) );
#73 = DIRECTION( '', ( 1.00000000000000, 0.000000000000000, 0.000000000000000 ) );
#74 =  ( LENGTH_UNIT(  )NAMED_UNIT( #62 )SI_UNIT( .MILLI., .METRE. ) );
#75 = ADVANCED_FACE( '', ( #93, #94 ), #95, .T. );
#76 = ADVANCED_FACE( '', ( #96 ), #97, .T. );
#77 = ADVANCED_FACE( '', ( #98, #99 ), #100, .T. );
#78 = ADVANCED_FACE( '', ( #101, #102 ), #103, .F. );
#79 = ADVANCED_FACE( '', ( #104 ), #105, .F. );
#80 = ADVANCED_FACE( '', ( #106, #107 ), #108, .T. );
#81 = ADVANCED_FACE( '', ( #109, #110 ), #111, .F. );
#82 = ADVANCED_FACE( '', ( #112 ), #113, .T. );
#83 = ADVANCED_FACE( '', ( #114, #115 ), #116, .T. );
#84 = ADVANCED_FACE( '', ( #117, #118 ), #119, .T. );
#85 = ADVANCED_FACE( '', ( #120 ), #121, .T. );
#86 = ADVANCED_FACE( '', ( #122, #123 ), #124, .T. );
#87 = ADVANCED_FACE( '', ( #125, #126 ), #127, .T. );
#88 = ADVANCED_FACE( '', ( #128, #129 ), #130, .F. );
#89 = ADVANCED_FACE( '', ( #131, #132 ), #133, .F. );
#90 = ADVANCED_FACE( '', ( #134, #135 ), #136, .F. );
#91 = ADVANCED_FACE( '', ( #137, #138, #139 ), #140, .T. );
#93 = FACE_OUTER_BOUND( '', #141, .T. );
#94 = FACE_OUTER_BOUND( '', #142, .T. );
#95 = CYLINDRICAL_SURFACE( '', #143, 11.7500000000000 );
#96 = FACE_OUTER_BOUND( '', #144, .T. );
#97 = CONICAL_SURFACE( '', #145, 10.5000000000000, 0.785398163400000 );
#98 = FACE_OUTER_BOUND( '', #146, .T. );
#99 = FACE_BOUND( '', #147, .T. );
#100 = PLANE( '', #148 );
#101 = FACE_OUTER_BOUND( '', #149, .T. );
#102 = FACE_BOUND( '', #150, .T. );
#103 = CONICAL_SURFACE( '', #151, 8.63000000000000, 0.785398163400000 );
#104 = FACE_OUTER_BOUND( '', #152, .T. );
#105 = SPHERICAL_SURFACE( '', #153, 7.50000000000000 );
#106 = FACE_BOUND( '', #154, .T. );
#107 = FACE_OUTER_BOUND( '', #155, .T. );
#108 = PLANE( '', #156 );
#109 = FACE_OUTER_BOUND( '', #157, .T. );
#110 = FACE_OUTER_BOUND( '', #158, .T. );
#111 = CYLINDRICAL_SURFACE( '', #159, 8.96500000000000 );
#112 = FACE_OUTER_BOUND( '', #160, .T. );
#113 = SPHERICAL_SURFACE( '', #161, 10.5000000000000 );
#114 = FACE_OUTER_BOUND( '', #162, .T. );
#115 = FACE_OUTER_BOUND( '', #163, .T. );
#116 = CYLINDRICAL_SURFACE( '', #164, 10.5000000000000 );
#117 = FACE_BOUND( '', #165, .T. );
#118 = FACE_OUTER_BOUND( '', #166, .T. );
#119 = PLANE( '', #167 );
#120 = FACE_OUTER_BOUND( '', #168, .T. );
#121 = CYLINDRICAL_SURFACE( '', #169, 10.5000000000000 );
#122 = FACE_OUTER_BOUND( '', #170, .T. );
#123 = FACE_BOUND( '', #171, .T. );
#124 = CONICAL_SURFACE( '', #172, 8.30000000000000, 0.785398163400000 );
#125 = FACE_OUTER_BOUND( '', #173, .T. );
#126 = FACE_OUTER_BOUND( '', #174, .T. );
#127 = CYLINDRICAL_SURFACE( '', #175, 9.30000000000000 );
#128 = FACE_OUTER_BOUND( '', #176, .T. );
#129 = FACE_OUTER_BOUND( '', #177, .T. );
#130 = CYLINDRICAL_SURFACE( '', #178, 7.50000000000000 );
#131 = FACE_OUTER_BOUND( '', #179, .T. );
#132 = FACE_OUTER_BOUND( '', #180, .T. );
#133 = CYLINDRICAL_SURFACE( '', #181, 7.50000000000000 );
#134 = FACE_OUTER_BOUND( '', #182, .T. );
#135 = FACE_BOUND( '', #183, .T. );
#136 = PLANE( '', #184 );
#137 = FACE_BOUND( '', #185, .T. );
#138 = FACE_OUTER_BOUND( '', #186, .T. );
#139 = FACE_OUTER_BOUND( '', #187, .T. );
#140 = TOROIDAL_SURFACE( '', #188, 10.2000000000000, 0.900000000000000 );
#141 = EDGE_LOOP( '', ( #189 ) );
#142 = EDGE_LOOP( '', ( #190, #191 ) );
#143 = AXIS2_PLACEMENT_3D( '', #192, #193, #194 );
#144 = EDGE_LOOP( '', ( #195, #196, #197, #198 ) );
#145 = AXIS2_PLACEMENT_3D( '', #199, #200, #201 );
#146 = EDGE_LOOP( '', ( #202 ) );
#147 = EDGE_LOOP( '', ( #203 ) );
#148 = AXIS2_PLACEMENT_3D( '', #204, #205, #206 );
#149 = EDGE_LOOP( '', ( #207 ) );
#150 = EDGE_LOOP( '', ( #208 ) );
#151 = AXIS2_PLACEMENT_3D( '', #209, #210, #211 );
#152 = EDGE_LOOP( '', ( #212, #213 ) );
#153 = AXIS2_PLACEMENT_3D( '', #214, #215, #216 );
#154 = EDGE_LOOP( '', ( #217 ) );
#155 = EDGE_LOOP( '', ( #218 ) );
#156 = AXIS2_PLACEMENT_3D( '', #219, #220, #221 );
#157 = EDGE_LOOP( '', ( #222 ) );
#158 = EDGE_LOOP( '', ( #223 ) );
#159 = AXIS2_PLACEMENT_3D( '', #224, #225, #226 );
#160 = EDGE_LOOP( '', ( #227, #228 ) );
#161 = AXIS2_PLACEMENT_3D( '', #229, #230, #231 );
#162 = EDGE_LOOP( '', ( #232, #233, #234, #235, #236, #237 ) );
#163 = EDGE_LOOP( '', ( #238 ) );
#164 = AXIS2_PLACEMENT_3D( '', #239, #240, #241 );
#165 = EDGE_LOOP( '', ( #242 ) );
#166 = EDGE_LOOP( '', ( #243 ) );
#167 = AXIS2_PLACEMENT_3D( '', #244, #245, #246 );
#168 = EDGE_LOOP( '', ( #247, #248, #249, #250 ) );
#169 = AXIS2_PLACEMENT_3D( '', #251, #252, #253 );
#170 = EDGE_LOOP( '', ( #254 ) );
#171 = EDGE_LOOP( '', ( #255 ) );
#172 = AXIS2_PLACEMENT_3D( '', #256, #257, #258 );
#173 = EDGE_LOOP( '', ( #259 ) );
#174 = EDGE_LOOP( '', ( #260 ) );
#175 = AXIS2_PLACEMENT_3D( '', #261, #262, #263 );
#176 = EDGE_LOOP( '', ( #264, #265 ) );
#177 = EDGE_LOOP( '', ( #266 ) );
#178 = AXIS2_PLACEMENT_3D( '', #267, #268, #269 );
#179 = EDGE_LOOP( '', ( #270, #271 ) );
#180 = EDGE_LOOP( '', ( #272 ) );
#181 = AXIS2_PLACEMENT_3D( '', #273, #274, #275 );
#182 = EDGE_LOOP( '', ( #276 ) );
#183 = EDGE_LOOP( '', ( #277 ) );
#184 = AXIS2_PLACEMENT_3D( '', #278, #279, #280 );
#185 = VERTEX_LOOP( '', #281 );
#186 = EDGE_LOOP( '', ( #282 ) );
#187 = EDGE_LOOP( '', ( #283 ) );
#188 = AXIS2_PLACEMENT_3D( '', #284, #285, #286 );
#189 = ORIENTED_EDGE( '', *, *, #287, .T. );
#190 = ORIENTED_EDGE( '', *, *, #288, .F. );
#191 = ORIENTED_EDGE( '', *, *, #289, .F. );
#192 = CARTESIAN_POINT( '', ( 0.000000000000000, 50.0000000000000, 0.000000000000000 ) );
#193 = DIRECTION( '', ( 0.000000000000000, -1.00000000000000, -0.000000000000000 ) );
#194 = DIRECTION( '', ( 0.000000000000000, 0.000000000000000, 1.00000000000000 ) );
#195 = ORIENTED_EDGE( '', *, *, #290, .F. );
#196 = ORIENTED_EDGE( '', *, *, #291, .F. );
#197 = ORIENTED_EDGE( '', *, *, #292, .F. );
#198 = ORIENTED_EDGE( '', *, *, #289, .T. );
#199 = CARTESIAN_POINT( '', ( 0.000000000000000, -2.75000000000000, 0.000000000000000 ) );
#200 = DIRECTION( '', ( 0.000000000000000, -1.00000000000000, -0.000000000000000 ) );
#201 = DIRECTION( '', ( 0.000000000000000, 0.000000000000000, -1.00000000000000 ) );
#202 = ORIENTED_EDGE( '', *, *, #293, .T. );
#203 = ORIENTED_EDGE( '', *, *, #294, .F. );
#204 = CARTESIAN_POINT( '', ( 11.5000000000000, 5.99999999999999, 0.000000000000000 ) );
#205 = DIRECTION( '', ( 1.00000000000000, -8.67361737988403E-17, -0.000000000000000 ) );
#206 = DIRECTION( '', ( 8.67361737988403E-17, 1.00000000000000, 0.000000000000000 ) );
#207 = ORIENTED_EDGE( '', *, *, #295, .T. );
#208 = ORIENTED_EDGE( '', *, *, #296, .F. );
#209 = CARTESIAN_POINT( '', ( 20.4999999999999, 6.00000000000000, 0.000000000000000 ) );
#210 = DIRECTION( '', ( 1.00000000000000, -6.93889390390732E-15, -0.000000000000000 ) );
#211 = DIRECTION( '', ( 6.93889390390732E-15, 1.00000000000000, 0.000000000000000 ) );
#212 = ORIENTED_EDGE( '', *, *, #297, .T. );
#213 = ORIENTED_EDGE( '', *, *, #298, .F. );
#214 = CARTESIAN_POINT( '', ( 0.000000000000000, 6.00000000000000, 0.000000000000000 ) );
#215 = DIRECTION( '', ( 0.000000000000000, 0.000000000000000, -1.00000000000000 ) );
#216 = DIRECTION( '', ( 0.000000000000000, -1.00000000000000, 0.000000000000000 ) );
#217 = ORIENTED_EDGE( '', *, *, #299, .T. );
#218 = ORIENTED_EDGE( '', *, *, #287, .F. );
#219 = CARTESIAN_POINT( '', ( -11.7500000000000, -5.50000000000000, 0.000000000000000 ) );
#220 = DIRECTION( '', ( 0.000000000000000, -1.00000000000000, 0.000000000000000 ) );
#221 = DIRECTION( '', ( 0.000000000000000, 0.000000000000000, -1.00000000000000 ) );
#222 = ORIENTED_EDGE( '', *, *, #296, .T. );
#223 = ORIENTED_EDGE( '', *, *, #293, .F. );
#224 = CARTESIAN_POINT( '', ( 21.5000000000000, 5.99999999999999, 0.000000000000000 ) );
#225 = DIRECTION( '', ( -1.00000000000000, 8.67361737988403E-17, 0.000000000000000 ) );
#226 = DIRECTION( '', ( 8.67361737988403E-17, 1.00000000000000, 0.000000000000000 ) );
#227 = ORIENTED_EDGE( '', *, *, #300, .T. );
#228 = ORIENTED_EDGE( '', *, *, #301, .T. );
#229 = CARTESIAN_POINT( '', ( 3.46944695195361E-15, 6.00000000000000, 0.000000000000000 ) );
#230 = DIRECTION( '', ( 0.000000000000000, 1.00000000000000, 0.000000000000000 ) );
#231 = DIRECTION( '', ( -1.00000000000000, 0.000000000000000, 0.000000000000000 ) );
#232 = ORIENTED_EDGE( '', *, *, #302, .T. );
#233 = ORIENTED_EDGE( '', *, *, #290, .T. );
#234 = ORIENTED_EDGE( '', *, *, #288, .T. );
#235 = ORIENTED_EDGE( '', *, *, #292, .T. );
#236 = ORIENTED_EDGE( '', *, *, #303, .T. );
#237 = ORIENTED_EDGE( '', *, *, #300, .F. );
#238 = ORIENTED_EDGE( '', *, *, #304, .F. );
#239 = CARTESIAN_POINT( '', ( 21.5000000000000, 6.00000000000000, 0.000000000000000 ) );
#240 = DIRECTION( '', ( 1.00000000000000, -0.000000000000000, -0.000000000000000 ) );
#241 = DIRECTION( '', ( 0.000000000000000, 0.000000000000000, 1.00000000000000 ) );
#242 = ORIENTED_EDGE( '', *, *, #295, .F. );
#243 = ORIENTED_EDGE( '', *, *, #304, .T. );
#244 = CARTESIAN_POINT( '', ( 21.5000000000000, 6.00000000000000, 0.000000000000000 ) );
#245 = DIRECTION( '', ( 1.00000000000000, 0.000000000000000, 0.000000000000000 ) );
#246 = DIRECTION( '', ( 0.000000000000000, 0.000000000000000, -1.00000000000000 ) );
#247 = ORIENTED_EDGE( '', *, *, #303, .F. );
#248 = ORIENTED_EDGE( '', *, *, #291, .T. );
#249 = ORIENTED_EDGE( '', *, *, #302, .F. );
#250 = ORIENTED_EDGE( '', *, *, #301, .F. );
#251 = CARTESIAN_POINT( '', ( 0.000000000000000, 16.5000000000000, 0.000000000000000 ) );
#252 = DIRECTION( '', ( 0.000000000000000, -1.00000000000000, -0.000000000000000 ) );
#253 = DIRECTION( '', ( 0.000000000000000, 0.000000000000000, 1.00000000000000 ) );
#254 = ORIENTED_EDGE( '', *, *, #305, .F. );
#255 = ORIENTED_EDGE( '', *, *, #306, .T. );
#256 = CARTESIAN_POINT( '', ( 0.000000000000000, -16.5000000000000, 0.000000000000000 ) );
#257 = DIRECTION( '', ( -0.000000000000000, 1.00000000000000, -0.000000000000000 ) );
#258 = DIRECTION( '', ( 0.000000000000000, 0.000000000000000, 1.00000000000000 ) );
#259 = ORIENTED_EDGE( '', *, *, #307, .F. );
#260 = ORIENTED_EDGE( '', *, *, #305, .T. );
#261 = CARTESIAN_POINT( '', ( 0.000000000000000, 50.0000000000000, 0.000000000000000 ) );
#262 = DIRECTION( '', ( 0.000000000000000, -1.00000000000000, -0.000000000000000 ) );
#263 = DIRECTION( '', ( 0.000000000000000, 0.000000000000000, 1.00000000000000 ) );
#264 = ORIENTED_EDGE( '', *, *, #297, .F. );
#265 = ORIENTED_EDGE( '', *, *, #308, .T. );
#266 = ORIENTED_EDGE( '', *, *, #294, .T. );
#267 = CARTESIAN_POINT( '', ( 32.0000000000000, 6.00000000000000, 0.000000000000000 ) );
#268 = DIRECTION( '', ( 1.00000000000000, -0.000000000000000, -0.000000000000000 ) );
#269 = DIRECTION( '', ( 0.000000000000000, 0.000000000000000, 1.00000000000000 ) );
#270 = ORIENTED_EDGE( '', *, *, #298, .T. );
#271 = ORIENTED_EDGE( '', *, *, #308, .F. );
#272 = ORIENTED_EDGE( '', *, *, #309, .F. );
#273 = CARTESIAN_POINT( '', ( 0.000000000000000, 6.00000000000000, 0.000000000000000 ) );
#274 = DIRECTION( '', ( -0.000000000000000, 1.00000000000000, 0.000000000000000 ) );
#275 = DIRECTION( '', ( 0.000000000000000, 0.000000000000000, -1.00000000000000 ) );
#276 = ORIENTED_EDGE( '', *, *, #306, .F. );
#277 = ORIENTED_EDGE( '', *, *, #309, .T. );
#278 = CARTESIAN_POINT( '', ( 0.000000000000000, -16.5000000000000, 0.000000000000000 ) );
#279 = DIRECTION( '', ( -0.000000000000000, 1.00000000000000, 0.000000000000000 ) );
#280 = DIRECTION( '', ( 0.000000000000000, 0.000000000000000, 1.00000000000000 ) );
#281 = VERTEX_POINT( '', #310 );
#282 = ORIENTED_EDGE( '', *, *, #307, .T. );
#283 = ORIENTED_EDGE( '', *, *, #299, .F. );
#284 = CARTESIAN_POINT( '', ( 0.000000000000000, -6.40000000000000, 0.000000000000000 ) );
#285 = DIRECTION( '', ( -0.000000000000000, 1.00000000000000, 0.000000000000000 ) );
#286 = DIRECTION( '', ( 0.000000000000000, 0.000000000000000, 1.00000000000000 ) );
#287 = EDGE_CURVE( '', #311, #311, #312, .T. );
#288 = EDGE_CURVE( '', #313, #314, #315, .T. );
#289 = EDGE_CURVE( '', #314, #313, #316, .T. );
#290 = EDGE_CURVE( '', #317, #313, #318, .T. );
#291 = EDGE_CURVE( '', #319, #317, #320, .T. );
#292 = EDGE_CURVE( '', #314, #319, #321, .T. );
#293 = EDGE_CURVE( '', #322, #322, #323, .T. );
#294 = EDGE_CURVE( '', #324, #324, #325, .T. );
#295 = EDGE_CURVE( '', #326, #326, #327, .T. );
#296 = EDGE_CURVE( '', #328, #328, #329, .T. );
#297 = EDGE_CURVE( '', #330, #331, #332, .T. );
#298 = EDGE_CURVE( '', #330, #331, #333, .T. );
#299 = EDGE_CURVE( '', #334, #334, #335, .T. );
#300 = EDGE_CURVE( '', #336, #337, #338, .F. );
#301 = EDGE_CURVE( '', #337, #336, #339, .T. );
#302 = EDGE_CURVE( '', #336, #317, #340, .T. );
#303 = EDGE_CURVE( '', #319, #337, #341, .T. );
#304 = EDGE_CURVE( '', #342, #342, #343, .T. );
#305 = EDGE_CURVE( '', #344, #344, #345, .T. );
#306 = EDGE_CURVE( '', #346, #346, #347, .T. );
#307 = EDGE_CURVE( '', #348, #348, #349, .T. );
#308 = EDGE_CURVE( '', #330, #331, #350, .T. );
#309 = EDGE_CURVE( '', #351, #351, #352, .T. );
#310 = CARTESIAN_POINT( '', ( 0.000000000000000, -6.40000000000000, 11.1000000000000 ) );
#311 = VERTEX_POINT( '', #353 );
#312 = CIRCLE( '', #354, 11.7500000000000 );
#313 = VERTEX_POINT( '', #355 );
#314 = VERTEX_POINT( '', #356 );
#315 = B_SPLINE_CURVE_WITH_KNOTS( '', 3, ( #357, #358, #359, #360, #361, #362, #363, #364, #365, #366, #367, #368, #369, #370 ), .UNSPECIFIED., .F., .F., ( 4, 2, 2, 2, 2, 2, 4 ), ( 0.000000000000000, 0.00163714921616863, 0.00245572382425295, 0.00327429843233726, 0.00491144764850590, 0.00573002225659021, 0.00654859686467453 ), .UNSPECIFIED. );
#316 = CIRCLE( '', #371, 11.7500000000000 );
#317 = VERTEX_POINT( '', #372 );
#318 = B_SPLINE_CURVE_WITH_KNOTS( '', 3, ( #373, #374, #375, #376, #377, #378 ), .UNSPECIFIED., .F., .F., ( 4, 2, 4 ), ( 0.000353832120712897, 0.00228644668597273, 0.00421906125123256 ), .UNSPECIFIED. );
#319 = VERTEX_POINT( '', #379 );
#320 = CIRCLE( '', #380, 10.5000000000000 );
#321 = B_SPLINE_CURVE_WITH_KNOTS( '', 3, ( #381, #382, #383, #384, #385, #386, #387, #388 ), .UNSPECIFIED., .F., .F., ( 4, 2, 2, 4 ), ( 0.000494666477259621, 0.00242326822489409, 0.00338756909871132, 0.00435186997252855 ), .UNSPECIFIED. );
#322 = VERTEX_POINT( '', #389 );
#323 = CIRCLE( '', #390, 8.96500000000000 );
#324 = VERTEX_POINT( '', #391 );
#325 = CIRCLE( '', #392, 7.50000000000000 );
#326 = VERTEX_POINT( '', #393 );
#327 = CIRCLE( '', #394, 9.63000000000000 );
#328 = VERTEX_POINT( '', #395 );
#329 = CIRCLE( '', #396, 8.96500000000000 );
#330 = VERTEX_POINT( '', #397 );
#331 = VERTEX_POINT( '', #398 );
#332 = CIRCLE( '', #399, 7.50000000000000 );
#333 = CIRCLE( '', #400, 7.50000000000000 );
#334 = VERTEX_POINT( '', #401 );
#335 = CIRCLE( '', #402, 10.2000000000000 );
#336 = VERTEX_POINT( '', #403 );
#337 = VERTEX_POINT( '', #404 );
#338 = CIRCLE( '', #405, 10.5000000000000 );
#339 = CIRCLE( '', #406, 10.5000000000000 );
#340 = ELLIPSE( '', #407, 14.8492424049000, 10.5000000000000 );
#341 = ELLIPSE( '', #408, 14.8492424049000, 10.5000000000000 );
#342 = VERTEX_POINT( '', #409 );
#343 = CIRCLE( '', #410, 10.5000000000000 );
#344 = VERTEX_POINT( '', #411 );
#345 = CIRCLE( '', #412, 9.30000000000000 );
#346 = VERTEX_POINT( '', #413 );
#347 = CIRCLE( '', #414, 8.30000000000000 );
#348 = VERTEX_POINT( '', #415 );
#349 = CIRCLE( '', #416, 9.30000000000000 );
#350 = ELLIPSE( '', #417, 10.6066017178000, 7.50000000000000 );
#351 = VERTEX_POINT( '', #418 );
#352 = CIRCLE( '', #419, 7.50000000000000 );
#353 = CARTESIAN_POINT( '', ( 0.000000000000000, -5.50000000000000, 11.7500000000000 ) );
#354 = AXIS2_PLACEMENT_3D( '', #420, #421, #422 );
#355 = CARTESIAN_POINT( '', ( 11.3054190545950, -4.00000000000000, 3.20156211871641 ) );
#356 = CARTESIAN_POINT( '', ( 11.3054190545950, -4.00000000000000, -3.20156211871641 ) );
#357 = CARTESIAN_POINT( '', ( 11.3054190545950, -4.00000000000000, 3.20156211871641 ) );
#358 = CARTESIAN_POINT( '', ( 11.4494253982164, -4.16280520611595, 2.69304408883286 ) );
#359 = CARTESIAN_POINT( '', ( 11.5601000978895, -4.28712186097601, 2.17200261201196 ) );
#360 = CARTESIAN_POINT( '', ( 11.6728904944270, -4.41365632101527, 1.37072240445253 ) );
#361 = CARTESIAN_POINT( '', ( 11.7015873820303, -4.44580020467946, 1.10032970368086 ) );
#362 = CARTESIAN_POINT( '', ( 11.7402085722359, -4.48904628535838, 0.552607814361512 ) );
#363 = CARTESIAN_POINT( '', ( 11.7499685586936, -4.49996481568089, 0.275410657707062 ) );
#364 = CARTESIAN_POINT( '', ( 11.7500626517830, -4.50007011032873, -0.546787272933369 ) );
#365 = CARTESIAN_POINT( '', ( 11.7119594790662, -4.45748285373346, -1.08909130123146 ) );
#366 = CARTESIAN_POINT( '', ( 11.5995005673856, -4.33132501724680, -1.89406712200157 ) );
#367 = CARTESIAN_POINT( '', ( 11.5525142057316, -4.27856537346533, -2.16201069826540 ) );
#368 = CARTESIAN_POINT( '', ( 11.4414584873867, -4.15358527720938, -2.68847585342538 ) );
#369 = CARTESIAN_POINT( '', ( 11.3774561975192, -4.08144100882537, -2.94718314431121 ) );
#370 = CARTESIAN_POINT( '', ( 11.3054190545950, -4.00000000000001, -3.20156211871642 ) );
#371 = AXIS2_PLACEMENT_3D( '', #423, #424, #425 );
#372 = CARTESIAN_POINT( '', ( 8.75000000000000, -2.75000000000000, 5.80409338312195 ) );
#373 = CARTESIAN_POINT( '', ( 8.75000000000000, -2.75000000000000, 5.80409338312195 ) );
#374 = CARTESIAN_POINT( '', ( 9.25039711374383, -2.97745323351992, 5.46119473178619 ) );
#375 = CARTESIAN_POINT( '', ( 9.71917644809092, -3.20184504234253, 5.08005244662388 ) );
#376 = CARTESIAN_POINT( '', ( 10.5818741403119, -3.62736357938160, 4.21838304971581 ) );
#377 = CARTESIAN_POINT( '', ( 10.9771106221300, -3.82934876284257, 3.73458703227283 ) );
#378 = CARTESIAN_POINT( '', ( 11.3054190545950, -4.00000000000000, 3.20156211871641 ) );
#379 = CARTESIAN_POINT( '', ( 8.75000000000000, -2.75000000000000, -5.80409338312195 ) );
#380 = AXIS2_PLACEMENT_3D( '', #426, #427, #428 );
#381 = CARTESIAN_POINT( '', ( 11.3054190545950, -4.00000000000000, -3.20156211871642 ) );
#382 = CARTESIAN_POINT( '', ( 10.9778841877420, -3.82975085403381, -3.73333111039369 ) );
#383 = CARTESIAN_POINT( '', ( 10.5913698204844, -3.63214649544534, -4.20763135967417 ) );
#384 = CARTESIAN_POINT( '', ( 9.94378943653697, -3.31258548253687, -4.85632099151219 ) );
#385 = CARTESIAN_POINT( '', ( 9.71570481188980, -3.20178774662247, -5.06233082914087 ) );
#386 = CARTESIAN_POINT( '', ( 9.24465896167136, -2.97771794752071, -5.44983225543007 ) );
#387 = CARTESIAN_POINT( '', ( 9.00107474368095, -2.86412488349134, -5.63204364776567 ) );
#388 = CARTESIAN_POINT( '', ( 8.75000000000000, -2.75000000000000, -5.80409338312195 ) );
#389 = CARTESIAN_POINT( '', ( 11.5000000000000, 14.9650000000000, 0.000000000000000 ) );
#390 = AXIS2_PLACEMENT_3D( '', #429, #430, #431 );
#391 = CARTESIAN_POINT( '', ( 11.5000000000000, 13.5000000000000, 0.000000000000000 ) );
#392 = AXIS2_PLACEMENT_3D( '', #432, #433, #434 );
#393 = CARTESIAN_POINT( '', ( 21.5000000000000, 15.6300000000000, 0.000000000000000 ) );
#394 = AXIS2_PLACEMENT_3D( '', #435, #436, #437 );
#395 = CARTESIAN_POINT( '', ( 20.8350000000000, 14.9650000000000, 0.000000000000000 ) );
#396 = AXIS2_PLACEMENT_3D( '', #438, #439, #440 );
#397 = CARTESIAN_POINT( '', ( 0.000000000000000, 6.00000000000000, -7.50000000000000 ) );
#398 = CARTESIAN_POINT( '', ( 0.000000000000000, 6.00000000000000, 7.50000000000000 ) );
#399 = AXIS2_PLACEMENT_3D( '', #441, #442, #443 );
#400 = AXIS2_PLACEMENT_3D( '', #444, #445, #446 );
#401 = CARTESIAN_POINT( '', ( 0.000000000000000, -5.50000000000000, 10.2000000000000 ) );
#402 = AXIS2_PLACEMENT_3D( '', #447, #448, #449 );
#403 = CARTESIAN_POINT( '', ( 0.000000000000000, 5.99999999999999, 10.5000000000000 ) );
#404 = CARTESIAN_POINT( '', ( 0.000000000000000, 5.99999999999999, -10.5000000000000 ) );
#405 = AXIS2_PLACEMENT_3D( '', #450, #451, #452 );
#406 = AXIS2_PLACEMENT_3D( '', #453, #454, #455 );
#407 = AXIS2_PLACEMENT_3D( '', #456, #457, #458 );
#408 = AXIS2_PLACEMENT_3D( '', #459, #460, #461 );
#409 = CARTESIAN_POINT( '', ( 21.5000000000000, 6.00000000000000, -10.5000000000000 ) );
#410 = AXIS2_PLACEMENT_3D( '', #462, #463, #464 );
#411 = CARTESIAN_POINT( '', ( 0.000000000000000, -15.5000000000000, 9.30000000000000 ) );
#412 = AXIS2_PLACEMENT_3D( '', #465, #466, #467 );
#413 = CARTESIAN_POINT( '', ( 0.000000000000000, -16.5000000000000, 8.30000000000001 ) );
#414 = AXIS2_PLACEMENT_3D( '', #468, #469, #470 );
#415 = CARTESIAN_POINT( '', ( 0.000000000000000, -6.40000000000000, 9.30000000000000 ) );
#416 = AXIS2_PLACEMENT_3D( '', #471, #472, #473 );
#417 = AXIS2_PLACEMENT_3D( '', #474, #475, #476 );
#418 = CARTESIAN_POINT( '', ( 7.50000000000000, -16.5000000000000, 0.000000000000000 ) );
#419 = AXIS2_PLACEMENT_3D( '', #477, #478, #479 );
#420 = CARTESIAN_POINT( '', ( 0.000000000000000, -5.50000000000000, 0.000000000000000 ) );
#421 = DIRECTION( '', ( -0.000000000000000, 1.00000000000000, 0.000000000000000 ) );
#422 = DIRECTION( '', ( 0.000000000000000, 0.000000000000000, 1.00000000000000 ) );
#423 = CARTESIAN_POINT( '', ( 0.000000000000000, -4.00000000000000, 0.000000000000000 ) );
#424 = DIRECTION( '', ( -0.000000000000000, 1.00000000000000, 0.000000000000000 ) );
#425 = DIRECTION( '', ( 0.000000000000000, 0.000000000000000, 1.00000000000000 ) );
#426 = CARTESIAN_POINT( '', ( 0.000000000000000, -2.75000000000000, 0.000000000000000 ) );
#427 = DIRECTION( '', ( -0.000000000000000, 1.00000000000000, 0.000000000000000 ) );
#428 = DIRECTION( '', ( 0.000000000000000, 0.000000000000000, 1.00000000000000 ) );
#429 = CARTESIAN_POINT( '', ( 11.5000000000000, 5.99999999999999, 0.000000000000000 ) );
#430 = DIRECTION( '', ( 1.00000000000000, -8.67361737988403E-17, -0.000000000000000 ) );
#431 = DIRECTION( '', ( 8.67361737988403E-17, 1.00000000000000, 0.000000000000000 ) );
#432 = CARTESIAN_POINT( '', ( 11.5000000000000, 6.00000000000000, 0.000000000000000 ) );
#433 = DIRECTION( '', ( 1.00000000000000, -8.67361737988403E-17, -0.000000000000000 ) );
#434 = DIRECTION( '', ( 8.67361737988403E-17, 1.00000000000000, 0.000000000000000 ) );
#435 = CARTESIAN_POINT( '', ( 21.4999999999999, 5.99999999999999, 0.000000000000000 ) );
#436 = DIRECTION( '', ( 1.00000000000000, -6.93889390390732E-15, -0.000000000000000 ) );
#437 = DIRECTION( '', ( 6.93889390390732E-15, 1.00000000000000, 0.000000000000000 ) );
#438 = CARTESIAN_POINT( '', ( 20.8349999999999, 6.00000000000000, 0.000000000000000 ) );
#439 = DIRECTION( '', ( 1.00000000000000, -6.93889390390732E-15, -0.000000000000000 ) );
#440 = DIRECTION( '', ( 6.93889390390732E-15, 1.00000000000000, 0.000000000000000 ) );
#441 = CARTESIAN_POINT( '', ( 0.000000000000000, 6.00000000000000, 0.000000000000000 ) );
#442 = DIRECTION( '', ( 1.00000000000000, 0.000000000000000, 0.000000000000000 ) );
#443 = DIRECTION( '', ( 0.000000000000000, 0.000000000000000, -1.00000000000000 ) );
#444 = CARTESIAN_POINT( '', ( 0.000000000000000, 6.00000000000000, 0.000000000000000 ) );
#445 = DIRECTION( '', ( -0.000000000000000, 1.00000000000000, 0.000000000000000 ) );
#446 = DIRECTION( '', ( 1.00000000000000, 0.000000000000000, 0.000000000000000 ) );
#447 = CARTESIAN_POINT( '', ( 0.000000000000000, -5.50000000000000, 0.000000000000000 ) );
#448 = DIRECTION( '', ( -0.000000000000000, 1.00000000000000, 0.000000000000000 ) );
#449 = DIRECTION( '', ( 0.000000000000000, 0.000000000000000, 1.00000000000000 ) );
#450 = CARTESIAN_POINT( '', ( 0.000000000000000, 6.00000000000000, 0.000000000000000 ) );
#451 = DIRECTION( '', ( 1.00000000000000, 0.000000000000000, 0.000000000000000 ) );
#452 = DIRECTION( '', ( 0.000000000000000, 0.000000000000000, -1.00000000000000 ) );
#453 = CARTESIAN_POINT( '', ( 0.000000000000000, 5.99999999999999, 0.000000000000000 ) );
#454 = DIRECTION( '', ( -0.000000000000000, 1.00000000000000, 0.000000000000000 ) );
#455 = DIRECTION( '', ( 0.000000000000000, 0.000000000000000, 1.00000000000000 ) );
#456 = CARTESIAN_POINT( '', ( 0.000000000000000, 6.00000000000000, 0.000000000000000 ) );
#457 = DIRECTION( '', ( 0.707106781186548, 0.707106781186548, 0.000000000000000 ) );
#458 = DIRECTION( '', ( -0.707106781186548, 0.707106781186548, -0.000000000000000 ) );
#459 = CARTESIAN_POINT( '', ( 0.000000000000000, 6.00000000000000, 0.000000000000000 ) );
#460 = DIRECTION( '', ( 0.707106781186548, 0.707106781186548, 0.000000000000000 ) );
#461 = DIRECTION( '', ( -0.707106781186548, 0.707106781186548, -0.000000000000000 ) );
#462 = CARTESIAN_POINT( '', ( 21.5000000000000, 6.00000000000000, 0.000000000000000 ) );
#463 = DIRECTION( '', ( 1.00000000000000, 0.000000000000000, 0.000000000000000 ) );
#464 = DIRECTION( '', ( 0.000000000000000, 0.000000000000000, -1.00000000000000 ) );
#465 = CARTESIAN_POINT( '', ( 0.000000000000000, -15.5000000000000, 0.000000000000000 ) );
#466 = DIRECTION( '', ( -0.000000000000000, 1.00000000000000, 0.000000000000000 ) );
#467 = DIRECTION( '', ( 0.000000000000000, 0.000000000000000, 1.00000000000000 ) );
#468 = CARTESIAN_POINT( '', ( 0.000000000000000, -16.5000000000000, 0.000000000000000 ) );
#469 = DIRECTION( '', ( -0.000000000000000, 1.00000000000000, 0.000000000000000 ) );
#470 = DIRECTION( '', ( 0.000000000000000, 0.000000000000000, 1.00000000000000 ) );
#471 = CARTESIAN_POINT( '', ( 0.000000000000000, -6.40000000000000, 0.000000000000000 ) );
#472 = DIRECTION( '', ( -0.000000000000000, 1.00000000000000, 0.000000000000000 ) );
#473 = DIRECTION( '', ( 0.000000000000000, 0.000000000000000, 1.00000000000000 ) );
#474 = CARTESIAN_POINT( '', ( -3.46944695195361E-15, 6.00000000000000, 0.000000000000000 ) );
#475 = DIRECTION( '', ( -0.707106781186548, -0.707106781186548, -0.000000000000000 ) );
#476 = DIRECTION( '', ( -0.707106781186548, 0.707106781186548, 0.000000000000000 ) );
#477 = CARTESIAN_POINT( '', ( 0.000000000000000, -16.5000000000000, 0.000000000000000 ) );
#478 = DIRECTION( '', ( -0.000000000000000, 1.00000000000000, 0.000000000000000 ) );
#479 = DIRECTION( '', ( 1.00000000000000, 0.000000000000000, 0.000000000000000 ) );
ENDSEC;
END-ISO-10303-21;
