ISO-10303-21;
HEADER;
FILE_DESCRIPTION( ( 'STEP AP203' ), '1' );
FILE_NAME( 'p:/temp/worker_107/temp/exporttempdir_4272_413_gXoht/format_0/FLEXA WIC-P 0512.100.016.stp', '2020-03-10T14:33:56', ( '' ), ( '' ), ' ', 'PARTsolutions', ' ' );
FILE_SCHEMA( ( 'CONFIG_CONTROL_DESIGN' ) );
ENDSEC;
DATA;
#1 = DESIGN_CONTEXT( '', #27, 'design' );
#2 = APPLICATION_PROTOCOL_DEFINITION( 'international standard', 'config_control_design', 1994, #27 );
#3 = PRODUCT_CATEGORY_RELATIONSHIP( 'NONE', 'NONE', #28, #29 );
#4 = DATE_AND_TIME( #30, #31 );
#5 = DATE_TIME_ROLE( 'creation_date' );
#6 = DATE_TIME_ROLE( 'classification_date' );
#7 = PERSON_AND_ORGANIZATION_ROLE( 'creator' );
#8 = PERSON_AND_ORGANIZATION_ROLE( 'design_supplier' );
#9 = PERSON_AND_ORGANIZATION_ROLE( 'classification_officer' );
#10 = PERSON_AND_ORGANIZATION_ROLE( 'design_owner' );
#11 = APPROVAL_PERSON_ORGANIZATION( #32, #33, #34 );
#12 = APPROVAL_DATE_TIME( #4, #33 );
#13 = CC_DESIGN_APPROVAL( #33, ( #35, #36, #37 ) );
#14 = CC_DESIGN_DATE_AND_TIME_ASSIGNMENT( #4, #5, ( #37 ) );
#15 = CC_DESIGN_DATE_AND_TIME_ASSIGNMENT( #4, #6, ( #35 ) );
#16 = CC_DESIGN_PERSON_AND_ORGANIZATION_ASSIGNMENT( #32, #10, ( #38 ) );
#17 = CC_DESIGN_PERSON_AND_ORGANIZATION_ASSIGNMENT( #32, #7, ( #37 ) );
#18 = CC_DESIGN_PERSON_AND_ORGANIZATION_ASSIGNMENT( #32, #7, ( #36 ) );
#19 = CC_DESIGN_PERSON_AND_ORGANIZATION_ASSIGNMENT( #32, #8, ( #36 ) );
#20 = CC_DESIGN_SECURITY_CLASSIFICATION( #35, ( #36 ) );
#21 = CC_DESIGN_PERSON_AND_ORGANIZATION_ASSIGNMENT( #32, #9, ( #35 ) );
#22 = SHAPE_DEFINITION_REPRESENTATION( #39, #40 );
#23 =  ( GEOMETRIC_REPRESENTATION_CONTEXT( 3 )GLOBAL_UNCERTAINTY_ASSIGNED_CONTEXT( ( #43 ) )GLOBAL_UNIT_ASSIGNED_CONTEXT( ( #45, #46, #47 ) )REPRESENTATION_CONTEXT( 'NONE', 'WORKSPACE' ) );
#27 = APPLICATION_CONTEXT( 'configuration controlled 3D designs of mechanical parts and assemblies' );
#28 = PRODUCT_CATEGORY( 'part', 'NONE' );
#29 = PRODUCT_RELATED_PRODUCT_CATEGORY( 'detail', ' ', ( #38 ) );
#30 = CALENDAR_DATE( 2020, 10, 2 );
#31 = LOCAL_TIME( 15, 33, 56.0000000000000, #49 );
#32 = PERSON_AND_ORGANIZATION( #50, #51 );
#33 = APPROVAL( #52, 'SOLID MODEL' );
#34 = APPROVAL_ROLE( 'APPROVED' );
#35 = SECURITY_CLASSIFICATION( '', '', #53 );
#36 = PRODUCT_DEFINITION_FORMATION_WITH_SPECIFIED_SOURCE( ' ', 'NONE', #38, .NOT_KNOWN. );
#37 = PRODUCT_DEFINITION( 'NONE', 'NONE', #36, #1 );
#38 = PRODUCT( '_FLEXA WIC-P 0512.100.016', '_FLEXA WIC-P 0512.100.016', 'PART-_FLEXA WIC-P 0512.100.016-DESC', ( #54 ) );
#39 = PRODUCT_DEFINITION_SHAPE( 'NONE', 'NONE', #37 );
#40 = ADVANCED_BREP_SHAPE_REPRESENTATION( '_FLEXA WIC-P 0512.100.016', ( #55, #56 ), #23 );
#43 = UNCERTAINTY_MEASURE_WITH_UNIT( LENGTH_MEASURE( 0.00100000000000000 ), #45, '', '' );
#45 =  ( CONVERSION_BASED_UNIT( 'MILLIMETRE', #59 )LENGTH_UNIT(  )NAMED_UNIT( #62 ) );
#46 =  ( NAMED_UNIT( #64 )PLANE_ANGLE_UNIT(  )SI_UNIT( $, .RADIAN. ) );
#47 =  ( NAMED_UNIT( #64 )SI_UNIT( $, .STERADIAN. )SOLID_ANGLE_UNIT(  ) );
#49 = COORDINATED_UNIVERSAL_TIME_OFFSET( 1, 0, .AHEAD. );
#50 = PERSON( '', 'UNSPECIFIED', $, $, $, $ );
#51 = ORGANIZATION( 'UNSPECIFIED', 'UNSPECIFIED', 'UNSPECIFIED' );
#52 = APPROVAL_STATUS( 'approved' );
#53 = SECURITY_CLASSIFICATION_LEVEL( 'unclassified' );
#54 = MECHANICAL_CONTEXT( '', #27, 'mechanical' );
#55 = MANIFOLD_SOLID_BREP( '_FLEXA WIC-P 0512.100.016', #70 );
#56 = AXIS2_PLACEMENT_3D( '', #71, #72, #73 );
#59 = LENGTH_MEASURE_WITH_UNIT( LENGTH_MEASURE( 1.00000000000000 ), #74 );
#62 = DIMENSIONAL_EXPONENTS( 1.00000000000000, 0.000000000000000, 0.000000000000000, 0.000000000000000, 0.000000000000000, 0.000000000000000, 0.000000000000000 );
#64 = DIMENSIONAL_EXPONENTS( 0.000000000000000, 0.000000000000000, 0.000000000000000, 0.000000000000000, 0.000000000000000, 0.000000000000000, 0.000000000000000 );
#70 = CLOSED_SHELL( '', ( #75, #76, #77, #78, #79, #80, #81, #82, #83, #84, #85, #86, #87, #88, #89, #90, #91 ) );
#71 = CARTESIAN_POINT( '', ( 0.000000000000000, 0.000000000000000, 0.000000000000000 ) );
#72 = DIRECTION( '', ( 0.000000000000000, 0.000000000000000, 1.00000000000000 ) );
#73 = DIRECTION( '', ( 1.00000000000000, 0.000000000000000, 0.000000000000000 ) );
#74 =  ( LENGTH_UNIT(  )NAMED_UNIT( #62 )SI_UNIT( .MILLI., .METRE. ) );
#75 = ADVANCED_FACE( '', ( #93, #94 ), #95, .T. );
#76 = ADVANCED_FACE( '', ( #96 ), #97, .T. );
#77 = ADVANCED_FACE( '', ( #98, #99 ), #100, .T. );
#78 = ADVANCED_FACE( '', ( #101, #102 ), #103, .F. );
#79 = ADVANCED_FACE( '', ( #104 ), #105, .F. );
#80 = ADVANCED_FACE( '', ( #106, #107 ), #108, .T. );
#81 = ADVANCED_FACE( '', ( #109, #110 ), #111, .F. );
#82 = ADVANCED_FACE( '', ( #112 ), #113, .T. );
#83 = ADVANCED_FACE( '', ( #114, #115 ), #116, .T. );
#84 = ADVANCED_FACE( '', ( #117, #118 ), #119, .T. );
#85 = ADVANCED_FACE( '', ( #120 ), #121, .T. );
#86 = ADVANCED_FACE( '', ( #122, #123 ), #124, .T. );
#87 = ADVANCED_FACE( '', ( #125, #126 ), #127, .T. );
#88 = ADVANCED_FACE( '', ( #128, #129 ), #130, .F. );
#89 = ADVANCED_FACE( '', ( #131, #132 ), #133, .F. );
#90 = ADVANCED_FACE( '', ( #134, #135 ), #136, .F. );
#91 = ADVANCED_FACE( '', ( #137, #138, #139 ), #140, .T. );
#93 = FACE_OUTER_BOUND( '', #141, .T. );
#94 = FACE_OUTER_BOUND( '', #142, .T. );
#95 = CYLINDRICAL_SURFACE( '', #143, 13.7500000000000 );
#96 = FACE_OUTER_BOUND( '', #144, .T. );
#97 = CONICAL_SURFACE( '', #145, 12.5000000000000, 0.785398163400000 );
#98 = FACE_OUTER_BOUND( '', #146, .T. );
#99 = FACE_BOUND( '', #147, .T. );
#100 = PLANE( '', #148 );
#101 = FACE_OUTER_BOUND( '', #149, .T. );
#102 = FACE_BOUND( '', #150, .T. );
#103 = CONICAL_SURFACE( '', #151, 10.5800000000000, 0.785398163400000 );
#104 = FACE_OUTER_BOUND( '', #152, .T. );
#105 = SPHERICAL_SURFACE( '', #153, 9.25000000000000 );
#106 = FACE_BOUND( '', #154, .T. );
#107 = FACE_OUTER_BOUND( '', #155, .T. );
#108 = PLANE( '', #156 );
#109 = FACE_OUTER_BOUND( '', #157, .T. );
#110 = FACE_OUTER_BOUND( '', #158, .T. );
#111 = CYLINDRICAL_SURFACE( '', #159, 10.9150000000000 );
#112 = FACE_OUTER_BOUND( '', #160, .T. );
#113 = SPHERICAL_SURFACE( '', #161, 12.5000000000000 );
#114 = FACE_OUTER_BOUND( '', #162, .T. );
#115 = FACE_OUTER_BOUND( '', #163, .T. );
#116 = CYLINDRICAL_SURFACE( '', #164, 12.5000000000000 );
#117 = FACE_BOUND( '', #165, .T. );
#118 = FACE_OUTER_BOUND( '', #166, .T. );
#119 = PLANE( '', #167 );
#120 = FACE_OUTER_BOUND( '', #168, .T. );
#121 = CYLINDRICAL_SURFACE( '', #169, 12.5000000000000 );
#122 = FACE_OUTER_BOUND( '', #170, .T. );
#123 = FACE_BOUND( '', #171, .T. );
#124 = CONICAL_SURFACE( '', #172, 10.2500000000000, 0.785398163400000 );
#125 = FACE_OUTER_BOUND( '', #173, .T. );
#126 = FACE_OUTER_BOUND( '', #174, .T. );
#127 = CYLINDRICAL_SURFACE( '', #175, 11.2500000000000 );
#128 = FACE_OUTER_BOUND( '', #176, .T. );
#129 = FACE_OUTER_BOUND( '', #177, .T. );
#130 = CYLINDRICAL_SURFACE( '', #178, 9.25000000000000 );
#131 = FACE_OUTER_BOUND( '', #179, .T. );
#132 = FACE_OUTER_BOUND( '', #180, .T. );
#133 = CYLINDRICAL_SURFACE( '', #181, 9.25000000000000 );
#134 = FACE_OUTER_BOUND( '', #182, .T. );
#135 = FACE_BOUND( '', #183, .T. );
#136 = PLANE( '', #184 );
#137 = FACE_BOUND( '', #185, .T. );
#138 = FACE_OUTER_BOUND( '', #186, .T. );
#139 = FACE_OUTER_BOUND( '', #187, .T. );
#140 = TOROIDAL_SURFACE( '', #188, 12.2500000000000, 1.00000000000000 );
#141 = EDGE_LOOP( '', ( #189 ) );
#142 = EDGE_LOOP( '', ( #190, #191 ) );
#143 = AXIS2_PLACEMENT_3D( '', #192, #193, #194 );
#144 = EDGE_LOOP( '', ( #195, #196, #197, #198 ) );
#145 = AXIS2_PLACEMENT_3D( '', #199, #200, #201 );
#146 = EDGE_LOOP( '', ( #202 ) );
#147 = EDGE_LOOP( '', ( #203 ) );
#148 = AXIS2_PLACEMENT_3D( '', #204, #205, #206 );
#149 = EDGE_LOOP( '', ( #207 ) );
#150 = EDGE_LOOP( '', ( #208 ) );
#151 = AXIS2_PLACEMENT_3D( '', #209, #210, #211 );
#152 = EDGE_LOOP( '', ( #212, #213 ) );
#153 = AXIS2_PLACEMENT_3D( '', #214, #215, #216 );
#154 = EDGE_LOOP( '', ( #217 ) );
#155 = EDGE_LOOP( '', ( #218 ) );
#156 = AXIS2_PLACEMENT_3D( '', #219, #220, #221 );
#157 = EDGE_LOOP( '', ( #222 ) );
#158 = EDGE_LOOP( '', ( #223 ) );
#159 = AXIS2_PLACEMENT_3D( '', #224, #225, #226 );
#160 = EDGE_LOOP( '', ( #227, #228 ) );
#161 = AXIS2_PLACEMENT_3D( '', #229, #230, #231 );
#162 = EDGE_LOOP( '', ( #232, #233, #234, #235, #236, #237 ) );
#163 = EDGE_LOOP( '', ( #238 ) );
#164 = AXIS2_PLACEMENT_3D( '', #239, #240, #241 );
#165 = EDGE_LOOP( '', ( #242 ) );
#166 = EDGE_LOOP( '', ( #243 ) );
#167 = AXIS2_PLACEMENT_3D( '', #244, #245, #246 );
#168 = EDGE_LOOP( '', ( #247, #248, #249, #250 ) );
#169 = AXIS2_PLACEMENT_3D( '', #251, #252, #253 );
#170 = EDGE_LOOP( '', ( #254 ) );
#171 = EDGE_LOOP( '', ( #255 ) );
#172 = AXIS2_PLACEMENT_3D( '', #256, #257, #258 );
#173 = EDGE_LOOP( '', ( #259 ) );
#174 = EDGE_LOOP( '', ( #260 ) );
#175 = AXIS2_PLACEMENT_3D( '', #261, #262, #263 );
#176 = EDGE_LOOP( '', ( #264, #265 ) );
#177 = EDGE_LOOP( '', ( #266 ) );
#178 = AXIS2_PLACEMENT_3D( '', #267, #268, #269 );
#179 = EDGE_LOOP( '', ( #270, #271 ) );
#180 = EDGE_LOOP( '', ( #272 ) );
#181 = AXIS2_PLACEMENT_3D( '', #273, #274, #275 );
#182 = EDGE_LOOP( '', ( #276 ) );
#183 = EDGE_LOOP( '', ( #277 ) );
#184 = AXIS2_PLACEMENT_3D( '', #278, #279, #280 );
#185 = VERTEX_LOOP( '', #281 );
#186 = EDGE_LOOP( '', ( #282 ) );
#187 = EDGE_LOOP( '', ( #283 ) );
#188 = AXIS2_PLACEMENT_3D( '', #284, #285, #286 );
#189 = ORIENTED_EDGE( '', *, *, #287, .T. );
#190 = ORIENTED_EDGE( '', *, *, #288, .F. );
#191 = ORIENTED_EDGE( '', *, *, #289, .F. );
#192 = CARTESIAN_POINT( '', ( 0.000000000000000, 50.0000000000000, 0.000000000000000 ) );
#193 = DIRECTION( '', ( 0.000000000000000, -1.00000000000000, -0.000000000000000 ) );
#194 = DIRECTION( '', ( 0.000000000000000, 0.000000000000000, 1.00000000000000 ) );
#195 = ORIENTED_EDGE( '', *, *, #290, .F. );
#196 = ORIENTED_EDGE( '', *, *, #291, .F. );
#197 = ORIENTED_EDGE( '', *, *, #292, .F. );
#198 = ORIENTED_EDGE( '', *, *, #289, .T. );
#199 = CARTESIAN_POINT( '', ( 0.000000000000000, -4.25000000000000, 0.000000000000000 ) );
#200 = DIRECTION( '', ( 0.000000000000000, -1.00000000000000, -0.000000000000000 ) );
#201 = DIRECTION( '', ( 0.000000000000000, 0.000000000000000, -1.00000000000000 ) );
#202 = ORIENTED_EDGE( '', *, *, #293, .T. );
#203 = ORIENTED_EDGE( '', *, *, #294, .F. );
#204 = CARTESIAN_POINT( '', ( 13.5000000000000, 6.50000000000000, 0.000000000000000 ) );
#205 = DIRECTION( '', ( 1.00000000000000, 0.000000000000000, -0.000000000000000 ) );
#206 = DIRECTION( '', ( -0.000000000000000, 0.000000000000000, -1.00000000000000 ) );
#207 = ORIENTED_EDGE( '', *, *, #295, .T. );
#208 = ORIENTED_EDGE( '', *, *, #296, .F. );
#209 = CARTESIAN_POINT( '', ( 23.5000000000000, 6.50000000000000, 0.000000000000000 ) );
#210 = DIRECTION( '', ( 1.00000000000000, -0.000000000000000, -0.000000000000000 ) );
#211 = DIRECTION( '', ( -0.000000000000000, 0.000000000000000, -1.00000000000000 ) );
#212 = ORIENTED_EDGE( '', *, *, #297, .T. );
#213 = ORIENTED_EDGE( '', *, *, #298, .F. );
#214 = CARTESIAN_POINT( '', ( 0.000000000000000, 6.50000000000000, -8.67361737988404E-16 ) );
#215 = DIRECTION( '', ( 0.000000000000000, 0.000000000000000, -1.00000000000000 ) );
#216 = DIRECTION( '', ( 0.000000000000000, 1.00000000000000, 0.000000000000000 ) );
#217 = ORIENTED_EDGE( '', *, *, #299, .T. );
#218 = ORIENTED_EDGE( '', *, *, #287, .F. );
#219 = CARTESIAN_POINT( '', ( -13.7500000000000, -7.50000000000000, 0.000000000000000 ) );
#220 = DIRECTION( '', ( 0.000000000000000, -1.00000000000000, 0.000000000000000 ) );
#221 = DIRECTION( '', ( 0.000000000000000, 0.000000000000000, -1.00000000000000 ) );
#222 = ORIENTED_EDGE( '', *, *, #296, .T. );
#223 = ORIENTED_EDGE( '', *, *, #293, .F. );
#224 = CARTESIAN_POINT( '', ( 24.5000000000000, 6.50000000000000, 0.000000000000000 ) );
#225 = DIRECTION( '', ( -1.00000000000000, -0.000000000000000, 0.000000000000000 ) );
#226 = DIRECTION( '', ( -0.000000000000000, 0.000000000000000, -1.00000000000000 ) );
#227 = ORIENTED_EDGE( '', *, *, #300, .T. );
#228 = ORIENTED_EDGE( '', *, *, #301, .T. );
#229 = CARTESIAN_POINT( '', ( -5.20417042793042E-15, 6.50000000000001, 0.000000000000000 ) );
#230 = DIRECTION( '', ( 0.000000000000000, 1.00000000000000, 0.000000000000000 ) );
#231 = DIRECTION( '', ( 1.00000000000000, 0.000000000000000, 0.000000000000000 ) );
#232 = ORIENTED_EDGE( '', *, *, #302, .T. );
#233 = ORIENTED_EDGE( '', *, *, #290, .T. );
#234 = ORIENTED_EDGE( '', *, *, #288, .T. );
#235 = ORIENTED_EDGE( '', *, *, #292, .T. );
#236 = ORIENTED_EDGE( '', *, *, #303, .T. );
#237 = ORIENTED_EDGE( '', *, *, #300, .F. );
#238 = ORIENTED_EDGE( '', *, *, #304, .F. );
#239 = CARTESIAN_POINT( '', ( 24.5000000000000, 6.50000000000000, 0.000000000000000 ) );
#240 = DIRECTION( '', ( 1.00000000000000, -0.000000000000000, -0.000000000000000 ) );
#241 = DIRECTION( '', ( 0.000000000000000, 0.000000000000000, 1.00000000000000 ) );
#242 = ORIENTED_EDGE( '', *, *, #295, .F. );
#243 = ORIENTED_EDGE( '', *, *, #304, .T. );
#244 = CARTESIAN_POINT( '', ( 24.5000000000000, 6.50000000000000, 0.000000000000000 ) );
#245 = DIRECTION( '', ( 1.00000000000000, 0.000000000000000, 0.000000000000000 ) );
#246 = DIRECTION( '', ( 0.000000000000000, 0.000000000000000, -1.00000000000000 ) );
#247 = ORIENTED_EDGE( '', *, *, #303, .F. );
#248 = ORIENTED_EDGE( '', *, *, #291, .T. );
#249 = ORIENTED_EDGE( '', *, *, #302, .F. );
#250 = ORIENTED_EDGE( '', *, *, #301, .F. );
#251 = CARTESIAN_POINT( '', ( 0.000000000000000, 19.0000000000000, 0.000000000000000 ) );
#252 = DIRECTION( '', ( 9.34924652315921E-17, -1.00000000000000, -0.000000000000000 ) );
#253 = DIRECTION( '', ( -1.00000000000000, -9.34924652315921E-17, 0.000000000000000 ) );
#254 = ORIENTED_EDGE( '', *, *, #305, .F. );
#255 = ORIENTED_EDGE( '', *, *, #306, .T. );
#256 = CARTESIAN_POINT( '', ( 0.000000000000000, -19.0000000000000, 0.000000000000000 ) );
#257 = DIRECTION( '', ( -0.000000000000000, 1.00000000000000, -0.000000000000000 ) );
#258 = DIRECTION( '', ( 0.000000000000000, 0.000000000000000, 1.00000000000000 ) );
#259 = ORIENTED_EDGE( '', *, *, #307, .F. );
#260 = ORIENTED_EDGE( '', *, *, #305, .T. );
#261 = CARTESIAN_POINT( '', ( 0.000000000000000, 50.0000000000000, 0.000000000000000 ) );
#262 = DIRECTION( '', ( 0.000000000000000, -1.00000000000000, -0.000000000000000 ) );
#263 = DIRECTION( '', ( 0.000000000000000, 0.000000000000000, 1.00000000000000 ) );
#264 = ORIENTED_EDGE( '', *, *, #297, .F. );
#265 = ORIENTED_EDGE( '', *, *, #308, .T. );
#266 = ORIENTED_EDGE( '', *, *, #294, .T. );
#267 = CARTESIAN_POINT( '', ( 37.0000000000000, 6.50000000000000, 0.000000000000000 ) );
#268 = DIRECTION( '', ( 1.00000000000000, -0.000000000000000, -0.000000000000000 ) );
#269 = DIRECTION( '', ( 0.000000000000000, 0.000000000000000, 1.00000000000000 ) );
#270 = ORIENTED_EDGE( '', *, *, #298, .T. );
#271 = ORIENTED_EDGE( '', *, *, #308, .F. );
#272 = ORIENTED_EDGE( '', *, *, #309, .F. );
#273 = CARTESIAN_POINT( '', ( 0.000000000000000, 6.50000000000000, 0.000000000000000 ) );
#274 = DIRECTION( '', ( -0.000000000000000, 1.00000000000000, 0.000000000000000 ) );
#275 = DIRECTION( '', ( 0.000000000000000, 0.000000000000000, -1.00000000000000 ) );
#276 = ORIENTED_EDGE( '', *, *, #306, .F. );
#277 = ORIENTED_EDGE( '', *, *, #309, .T. );
#278 = CARTESIAN_POINT( '', ( 3.55271367880050E-15, -19.0000000000000, 0.000000000000000 ) );
#279 = DIRECTION( '', ( -9.34924652315921E-17, 1.00000000000000, 0.000000000000000 ) );
#280 = DIRECTION( '', ( -1.00000000000000, -9.34924652315921E-17, 0.000000000000000 ) );
#281 = VERTEX_POINT( '', #310 );
#282 = ORIENTED_EDGE( '', *, *, #307, .T. );
#283 = ORIENTED_EDGE( '', *, *, #299, .F. );
#284 = CARTESIAN_POINT( '', ( 0.000000000000000, -8.50000000000000, 0.000000000000000 ) );
#285 = DIRECTION( '', ( -0.000000000000000, 1.00000000000000, 0.000000000000000 ) );
#286 = DIRECTION( '', ( 0.000000000000000, 0.000000000000000, 1.00000000000000 ) );
#287 = EDGE_CURVE( '', #311, #311, #312, .T. );
#288 = EDGE_CURVE( '', #313, #314, #315, .T. );
#289 = EDGE_CURVE( '', #314, #313, #316, .T. );
#290 = EDGE_CURVE( '', #317, #313, #318, .T. );
#291 = EDGE_CURVE( '', #319, #317, #320, .T. );
#292 = EDGE_CURVE( '', #314, #319, #321, .T. );
#293 = EDGE_CURVE( '', #322, #322, #323, .T. );
#294 = EDGE_CURVE( '', #324, #324, #325, .T. );
#295 = EDGE_CURVE( '', #326, #326, #327, .T. );
#296 = EDGE_CURVE( '', #328, #328, #329, .T. );
#297 = EDGE_CURVE( '', #330, #331, #332, .T. );
#298 = EDGE_CURVE( '', #330, #331, #333, .T. );
#299 = EDGE_CURVE( '', #334, #334, #335, .T. );
#300 = EDGE_CURVE( '', #336, #337, #338, .F. );
#301 = EDGE_CURVE( '', #337, #336, #339, .T. );
#302 = EDGE_CURVE( '', #336, #317, #340, .T. );
#303 = EDGE_CURVE( '', #319, #337, #341, .T. );
#304 = EDGE_CURVE( '', #342, #342, #343, .T. );
#305 = EDGE_CURVE( '', #344, #344, #345, .T. );
#306 = EDGE_CURVE( '', #346, #346, #347, .T. );
#307 = EDGE_CURVE( '', #348, #348, #349, .T. );
#308 = EDGE_CURVE( '', #330, #331, #350, .T. );
#309 = EDGE_CURVE( '', #351, #351, #352, .T. );
#310 = CARTESIAN_POINT( '', ( 0.000000000000000, -8.50000000000000, 13.2500000000000 ) );
#311 = VERTEX_POINT( '', #353 );
#312 = CIRCLE( '', #354, 13.7500000000000 );
#313 = VERTEX_POINT( '', #355 );
#314 = VERTEX_POINT( '', #356 );
#315 = B_SPLINE_CURVE_WITH_KNOTS( '', 3, ( #357, #358, #359, #360, #361, #362, #363, #364, #365, #366, #367, #368 ), .UNSPECIFIED., .F., .F., ( 4, 2, 2, 2, 2, 4 ), ( 0.000000000000000, 0.00178291297226392, 0.00267436945839589, 0.00356582594452785, 0.00534873891679177, 0.00713165188905570 ), .UNSPECIFIED. );
#316 = CIRCLE( '', #369, 13.7500000000000 );
#317 = VERTEX_POINT( '', #370 );
#318 = B_SPLINE_CURVE_WITH_KNOTS( '', 3, ( #371, #372, #373, #374, #375, #376, #377, #378 ), .UNSPECIFIED., .F., .F., ( 4, 2, 2, 4 ), ( 0.000360799163835985, 0.00238301290830201, 0.00339411978053502, 0.00440522665276804 ), .UNSPECIFIED. );
#319 = VERTEX_POINT( '', #379 );
#320 = CIRCLE( '', #380, 12.5000000000000 );
#321 = B_SPLINE_CURVE_WITH_KNOTS( '', 3, ( #381, #382, #383, #384, #385, #386, #387, #388 ), .UNSPECIFIED., .F., .F., ( 4, 2, 2, 4 ), ( 0.000529549366200636, 0.00255018889259482, 0.00356050865579191, 0.00457082841898900 ), .UNSPECIFIED. );
#322 = VERTEX_POINT( '', #389 );
#323 = CIRCLE( '', #390, 10.9150000000000 );
#324 = VERTEX_POINT( '', #391 );
#325 = CIRCLE( '', #392, 9.25000000000000 );
#326 = VERTEX_POINT( '', #393 );
#327 = CIRCLE( '', #394, 11.5800000000000 );
#328 = VERTEX_POINT( '', #395 );
#329 = CIRCLE( '', #396, 10.9150000000000 );
#330 = VERTEX_POINT( '', #397 );
#331 = VERTEX_POINT( '', #398 );
#332 = CIRCLE( '', #399, 9.25000000000000 );
#333 = CIRCLE( '', #400, 9.25000000000000 );
#334 = VERTEX_POINT( '', #401 );
#335 = CIRCLE( '', #402, 12.2500000000000 );
#336 = VERTEX_POINT( '', #403 );
#337 = VERTEX_POINT( '', #404 );
#338 = CIRCLE( '', #405, 12.5000000000000 );
#339 = CIRCLE( '', #406, 12.5000000000000 );
#340 = ELLIPSE( '', #407, 17.6776695297000, 12.5000000000000 );
#341 = ELLIPSE( '', #408, 17.6776695297000, 12.5000000000000 );
#342 = VERTEX_POINT( '', #409 );
#343 = CIRCLE( '', #410, 12.5000000000000 );
#344 = VERTEX_POINT( '', #411 );
#345 = CIRCLE( '', #412, 11.2500000000000 );
#346 = VERTEX_POINT( '', #413 );
#347 = CIRCLE( '', #414, 10.2500000000000 );
#348 = VERTEX_POINT( '', #415 );
#349 = CIRCLE( '', #416, 11.2500000000000 );
#350 = ELLIPSE( '', #417, 13.0814754520000, 9.25000000000000 );
#351 = VERTEX_POINT( '', #418 );
#352 = CIRCLE( '', #419, 9.25000000000000 );
#353 = CARTESIAN_POINT( '', ( 0.000000000000000, -7.50000000000000, 13.7500000000000 ) );
#354 = AXIS2_PLACEMENT_3D( '', #420, #421, #422 );
#355 = CARTESIAN_POINT( '', ( 13.2970861469722, -5.50000000000000, 3.50000000000001 ) );
#356 = CARTESIAN_POINT( '', ( 13.2970861469722, -5.50000000000000, -3.50000000000001 ) );
#357 = CARTESIAN_POINT( '', ( 13.2970861469722, -5.50000000000000, 3.50000000000001 ) );
#358 = CARTESIAN_POINT( '', ( 13.4446859354824, -5.66355392525794, 2.93924368482993 ) );
#359 = CARTESIAN_POINT( '', ( 13.5574481695143, -5.78792700709526, 2.36734518908731 ) );
#360 = CARTESIAN_POINT( '', ( 13.6719573223896, -5.91411411824864, 1.49219268296646 ) );
#361 = CARTESIAN_POINT( '', ( 13.7009947581250, -5.94607720563426, 1.19758140189033 ) );
#362 = CARTESIAN_POINT( '', ( 13.7400379432031, -5.98904412383508, 0.602342008881083 ) );
#363 = CARTESIAN_POINT( '', ( 13.7499927030679, -5.99999197337464, 0.300064214630528 ) );
#364 = CARTESIAN_POINT( '', ( 13.7500145816539, -6.00001603981928, -0.599124756281296 ) );
#365 = CARTESIAN_POINT( '', ( 13.7110047344553, -5.95714213216923, -1.19074440988989 ) );
#366 = CARTESIAN_POINT( '', ( 13.5589216208687, -5.78955226172496, -2.35906073620002 ) );
#367 = CARTESIAN_POINT( '', ( 13.4447289685504, -5.66360160979234, -2.93908019499770 ) );
#368 = CARTESIAN_POINT( '', ( 13.2970861469722, -5.50000000000000, -3.50000000000001 ) );
#369 = AXIS2_PLACEMENT_3D( '', #423, #424, #425 );
#370 = CARTESIAN_POINT( '', ( 10.7500000000000, -4.25000000000000, 6.37867541108653 ) );
#371 = CARTESIAN_POINT( '', ( 10.7500000000000, -4.25000000000000, 6.37867541108653 ) );
#372 = CARTESIAN_POINT( '', ( 11.2534529412086, -4.48277931690291, 5.98637175939782 ) );
#373 = CARTESIAN_POINT( '', ( 11.7225792070650, -4.70894800943879, 5.55706697680624 ) );
#374 = CARTESIAN_POINT( '', ( 12.3655432954580, -5.02665124938564, 4.84295242499754 ) );
#375 = CARTESIAN_POINT( '', ( 12.5696583053477, -5.12894017332101, 4.59312727969887 ) );
#376 = CARTESIAN_POINT( '', ( 12.9543117785573, -5.32371890111077, 4.06555520313144 ) );
#377 = CARTESIAN_POINT( '', ( 13.1343621339265, -5.41597067108154, 3.78810055629187 ) );
#378 = CARTESIAN_POINT( '', ( 13.2970861469722, -5.50000000000000, 3.50000000000001 ) );
#379 = CARTESIAN_POINT( '', ( 10.7500000000000, -4.25000000000000, -6.37867541108653 ) );
#380 = AXIS2_PLACEMENT_3D( '', #426, #427, #428 );
#381 = CARTESIAN_POINT( '', ( 13.2970861469722, -5.50000000000000, -3.50000000000001 ) );
#382 = CARTESIAN_POINT( '', ( 12.9736172958613, -5.33296337168604, -4.07269701136214 ) );
#383 = CARTESIAN_POINT( '', ( 12.5906963501103, -5.13799669825939, -4.59138230176158 ) );
#384 = CARTESIAN_POINT( '', ( 11.9467930199356, -4.81969270833293, -5.30876601823068 ) );
#385 = CARTESIAN_POINT( '', ( 11.7195958382973, -4.70882331074122, -5.53830043523790 ) );
#386 = CARTESIAN_POINT( '', ( 11.2473075567792, -4.48228831297809, -5.97493390197723 ) );
#387 = CARTESIAN_POINT( '', ( 11.0025973939575, -4.36679234344271, -6.18184493906926 ) );
#388 = CARTESIAN_POINT( '', ( 10.7500000000000, -4.25000000000000, -6.37867541108653 ) );
#389 = CARTESIAN_POINT( '', ( 13.5000000000000, 6.50000000000000, -10.9150000000000 ) );
#390 = AXIS2_PLACEMENT_3D( '', #429, #430, #431 );
#391 = CARTESIAN_POINT( '', ( 13.5000000000000, 6.50000000000000, -9.25000000000000 ) );
#392 = AXIS2_PLACEMENT_3D( '', #432, #433, #434 );
#393 = CARTESIAN_POINT( '', ( 24.5000000000000, 6.50000000000000, -11.5800000000000 ) );
#394 = AXIS2_PLACEMENT_3D( '', #435, #436, #437 );
#395 = CARTESIAN_POINT( '', ( 23.8350000000000, 6.50000000000000, -10.9150000000000 ) );
#396 = AXIS2_PLACEMENT_3D( '', #438, #439, #440 );
#397 = CARTESIAN_POINT( '', ( 0.000000000000000, 6.50000000000000, -9.25000000000000 ) );
#398 = CARTESIAN_POINT( '', ( 0.000000000000000, 6.50000000000000, 9.25000000000000 ) );
#399 = AXIS2_PLACEMENT_3D( '', #441, #442, #443 );
#400 = AXIS2_PLACEMENT_3D( '', #444, #445, #446 );
#401 = CARTESIAN_POINT( '', ( 0.000000000000000, -7.50000000000000, 12.2500000000000 ) );
#402 = AXIS2_PLACEMENT_3D( '', #447, #448, #449 );
#403 = CARTESIAN_POINT( '', ( 0.000000000000000, 6.50000000000000, 12.5000000000000 ) );
#404 = CARTESIAN_POINT( '', ( -9.62964972193618E-32, 6.50000000000000, -12.5000000000000 ) );
#405 = AXIS2_PLACEMENT_3D( '', #450, #451, #452 );
#406 = AXIS2_PLACEMENT_3D( '', #453, #454, #455 );
#407 = AXIS2_PLACEMENT_3D( '', #456, #457, #458 );
#408 = AXIS2_PLACEMENT_3D( '', #459, #460, #461 );
#409 = CARTESIAN_POINT( '', ( 24.5000000000000, 6.50000000000000, -12.5000000000000 ) );
#410 = AXIS2_PLACEMENT_3D( '', #462, #463, #464 );
#411 = CARTESIAN_POINT( '', ( 0.000000000000000, -18.0000000000000, 11.2500000000000 ) );
#412 = AXIS2_PLACEMENT_3D( '', #465, #466, #467 );
#413 = CARTESIAN_POINT( '', ( 0.000000000000000, -19.0000000000000, 10.2500000000000 ) );
#414 = AXIS2_PLACEMENT_3D( '', #468, #469, #470 );
#415 = CARTESIAN_POINT( '', ( 0.000000000000000, -8.50000000000000, 11.2500000000000 ) );
#416 = AXIS2_PLACEMENT_3D( '', #471, #472, #473 );
#417 = AXIS2_PLACEMENT_3D( '', #474, #475, #476 );
#418 = CARTESIAN_POINT( '', ( 9.25000000000000, -19.0000000000000, 0.000000000000000 ) );
#419 = AXIS2_PLACEMENT_3D( '', #477, #478, #479 );
#420 = CARTESIAN_POINT( '', ( 0.000000000000000, -7.50000000000000, 0.000000000000000 ) );
#421 = DIRECTION( '', ( -0.000000000000000, 1.00000000000000, 0.000000000000000 ) );
#422 = DIRECTION( '', ( 0.000000000000000, 0.000000000000000, 1.00000000000000 ) );
#423 = CARTESIAN_POINT( '', ( 0.000000000000000, -5.50000000000000, 0.000000000000000 ) );
#424 = DIRECTION( '', ( -0.000000000000000, 1.00000000000000, 0.000000000000000 ) );
#425 = DIRECTION( '', ( 0.000000000000000, 0.000000000000000, 1.00000000000000 ) );
#426 = CARTESIAN_POINT( '', ( 0.000000000000000, -4.25000000000000, 0.000000000000000 ) );
#427 = DIRECTION( '', ( -0.000000000000000, 1.00000000000000, 0.000000000000000 ) );
#428 = DIRECTION( '', ( 0.000000000000000, 0.000000000000000, 1.00000000000000 ) );
#429 = CARTESIAN_POINT( '', ( 13.5000000000000, 6.50000000000000, 0.000000000000000 ) );
#430 = DIRECTION( '', ( 1.00000000000000, 0.000000000000000, -0.000000000000000 ) );
#431 = DIRECTION( '', ( -0.000000000000000, 0.000000000000000, -1.00000000000000 ) );
#432 = CARTESIAN_POINT( '', ( 13.5000000000000, 6.50000000000000, 0.000000000000000 ) );
#433 = DIRECTION( '', ( 1.00000000000000, 0.000000000000000, -0.000000000000000 ) );
#434 = DIRECTION( '', ( -0.000000000000000, 0.000000000000000, -1.00000000000000 ) );
#435 = CARTESIAN_POINT( '', ( 24.5000000000000, 6.50000000000000, 0.000000000000000 ) );
#436 = DIRECTION( '', ( 1.00000000000000, 0.000000000000000, -0.000000000000000 ) );
#437 = DIRECTION( '', ( -0.000000000000000, 0.000000000000000, -1.00000000000000 ) );
#438 = CARTESIAN_POINT( '', ( 23.8350000000000, 6.50000000000000, 0.000000000000000 ) );
#439 = DIRECTION( '', ( 1.00000000000000, 0.000000000000000, -0.000000000000000 ) );
#440 = DIRECTION( '', ( -0.000000000000000, 0.000000000000000, -1.00000000000000 ) );
#441 = CARTESIAN_POINT( '', ( 0.000000000000000, 6.50000000000000, 0.000000000000000 ) );
#442 = DIRECTION( '', ( 1.00000000000000, 0.000000000000000, 0.000000000000000 ) );
#443 = DIRECTION( '', ( 0.000000000000000, 0.000000000000000, -1.00000000000000 ) );
#444 = CARTESIAN_POINT( '', ( 0.000000000000000, 6.50000000000000, 0.000000000000000 ) );
#445 = DIRECTION( '', ( -0.000000000000000, 1.00000000000000, 0.000000000000000 ) );
#446 = DIRECTION( '', ( 1.00000000000000, 0.000000000000000, 0.000000000000000 ) );
#447 = CARTESIAN_POINT( '', ( 0.000000000000000, -7.50000000000000, 0.000000000000000 ) );
#448 = DIRECTION( '', ( -0.000000000000000, 1.00000000000000, 0.000000000000000 ) );
#449 = DIRECTION( '', ( 0.000000000000000, 0.000000000000000, 1.00000000000000 ) );
#450 = CARTESIAN_POINT( '', ( 0.000000000000000, 6.50000000000001, 0.000000000000000 ) );
#451 = DIRECTION( '', ( 1.00000000000000, 0.000000000000000, 0.000000000000000 ) );
#452 = DIRECTION( '', ( 0.000000000000000, 0.000000000000000, -1.00000000000000 ) );
#453 = CARTESIAN_POINT( '', ( 1.16865581539490E-15, 6.50000000000000, 0.000000000000000 ) );
#454 = DIRECTION( '', ( -9.34924652315921E-17, 1.00000000000000, 0.000000000000000 ) );
#455 = DIRECTION( '', ( -1.00000000000000, -9.34924652315921E-17, 0.000000000000000 ) );
#456 = CARTESIAN_POINT( '', ( 5.84327907697451E-16, 6.50000000000000, 0.000000000000000 ) );
#457 = DIRECTION( '', ( 0.707106781186547, 0.707106781186548, 0.000000000000000 ) );
#458 = DIRECTION( '', ( -0.707106781186548, 0.707106781186547, -0.000000000000000 ) );
#459 = CARTESIAN_POINT( '', ( 5.84327907697451E-16, 6.50000000000000, 0.000000000000000 ) );
#460 = DIRECTION( '', ( 0.707106781186547, 0.707106781186548, 0.000000000000000 ) );
#461 = DIRECTION( '', ( -0.707106781186548, 0.707106781186547, -0.000000000000000 ) );
#462 = CARTESIAN_POINT( '', ( 24.5000000000000, 6.50000000000000, 0.000000000000000 ) );
#463 = DIRECTION( '', ( 1.00000000000000, 0.000000000000000, 0.000000000000000 ) );
#464 = DIRECTION( '', ( 0.000000000000000, 0.000000000000000, -1.00000000000000 ) );
#465 = CARTESIAN_POINT( '', ( 0.000000000000000, -18.0000000000000, 0.000000000000000 ) );
#466 = DIRECTION( '', ( -0.000000000000000, 1.00000000000000, 0.000000000000000 ) );
#467 = DIRECTION( '', ( 0.000000000000000, 0.000000000000000, 1.00000000000000 ) );
#468 = CARTESIAN_POINT( '', ( 0.000000000000000, -19.0000000000000, 0.000000000000000 ) );
#469 = DIRECTION( '', ( -0.000000000000000, 1.00000000000000, 0.000000000000000 ) );
#470 = DIRECTION( '', ( 0.000000000000000, 0.000000000000000, 1.00000000000000 ) );
#471 = CARTESIAN_POINT( '', ( 0.000000000000000, -8.50000000000000, 0.000000000000000 ) );
#472 = DIRECTION( '', ( -0.000000000000000, 1.00000000000000, 0.000000000000000 ) );
#473 = DIRECTION( '', ( 0.000000000000000, 0.000000000000000, 1.00000000000000 ) );
#474 = CARTESIAN_POINT( '', ( 0.000000000000000, 6.50000000000000, 0.000000000000000 ) );
#475 = DIRECTION( '', ( -0.707106781186548, -0.707106781186548, -0.000000000000000 ) );
#476 = DIRECTION( '', ( -0.707106781186548, 0.707106781186548, 0.000000000000000 ) );
#477 = CARTESIAN_POINT( '', ( 0.000000000000000, -19.0000000000000, 0.000000000000000 ) );
#478 = DIRECTION( '', ( -0.000000000000000, 1.00000000000000, 0.000000000000000 ) );
#479 = DIRECTION( '', ( 1.00000000000000, 0.000000000000000, 0.000000000000000 ) );
ENDSEC;
END-ISO-10303-21;
