ISO-10303-21;
HEADER;
FILE_DESCRIPTION( ( 'STEP AP203' ), '1' );
FILE_NAME( 'p:/temp/worker_101/temp/exporttempdir_4940_145_wZ727/format_0/FLEXA WIC-M 0512.300.012.stp', '2020-03-10T14:34:57', ( '' ), ( '' ), ' ', 'PARTsolutions', ' ' );
FILE_SCHEMA( ( 'CONFIG_CONTROL_DESIGN' ) );
ENDSEC;
DATA;
#1 = DESIGN_CONTEXT( '', #27, 'design' );
#2 = APPLICATION_PROTOCOL_DEFINITION( 'international standard', 'config_control_design', 1994, #27 );
#3 = PRODUCT_CATEGORY_RELATIONSHIP( 'NONE', 'NONE', #28, #29 );
#4 = DATE_AND_TIME( #30, #31 );
#5 = DATE_TIME_ROLE( 'creation_date' );
#6 = DATE_TIME_ROLE( 'classification_date' );
#7 = PERSON_AND_ORGANIZATION_ROLE( 'creator' );
#8 = PERSON_AND_ORGANIZATION_ROLE( 'design_supplier' );
#9 = PERSON_AND_ORGANIZATION_ROLE( 'classification_officer' );
#10 = PERSON_AND_ORGANIZATION_ROLE( 'design_owner' );
#11 = APPROVAL_PERSON_ORGANIZATION( #32, #33, #34 );
#12 = APPROVAL_DATE_TIME( #4, #33 );
#13 = CC_DESIGN_APPROVAL( #33, ( #35, #36, #37 ) );
#14 = CC_DESIGN_DATE_AND_TIME_ASSIGNMENT( #4, #5, ( #37 ) );
#15 = CC_DESIGN_DATE_AND_TIME_ASSIGNMENT( #4, #6, ( #35 ) );
#16 = CC_DESIGN_PERSON_AND_ORGANIZATION_ASSIGNMENT( #32, #10, ( #38 ) );
#17 = CC_DESIGN_PERSON_AND_ORGANIZATION_ASSIGNMENT( #32, #7, ( #37 ) );
#18 = CC_DESIGN_PERSON_AND_ORGANIZATION_ASSIGNMENT( #32, #7, ( #36 ) );
#19 = CC_DESIGN_PERSON_AND_ORGANIZATION_ASSIGNMENT( #32, #8, ( #36 ) );
#20 = CC_DESIGN_SECURITY_CLASSIFICATION( #35, ( #36 ) );
#21 = CC_DESIGN_PERSON_AND_ORGANIZATION_ASSIGNMENT( #32, #9, ( #35 ) );
#22 = SHAPE_DEFINITION_REPRESENTATION( #39, #40 );
#23 =  ( GEOMETRIC_REPRESENTATION_CONTEXT( 3 )GLOBAL_UNCERTAINTY_ASSIGNED_CONTEXT( ( #43 ) )GLOBAL_UNIT_ASSIGNED_CONTEXT( ( #45, #46, #47 ) )REPRESENTATION_CONTEXT( 'NONE', 'WORKSPACE' ) );
#27 = APPLICATION_CONTEXT( 'configuration controlled 3D designs of mechanical parts and assemblies' );
#28 = PRODUCT_CATEGORY( 'part', 'NONE' );
#29 = PRODUCT_RELATED_PRODUCT_CATEGORY( 'detail', ' ', ( #38 ) );
#30 = CALENDAR_DATE( 2020, 10, 2 );
#31 = LOCAL_TIME( 15, 34, 57.0000000000000, #49 );
#32 = PERSON_AND_ORGANIZATION( #50, #51 );
#33 = APPROVAL( #52, 'SOLID MODEL' );
#34 = APPROVAL_ROLE( 'APPROVED' );
#35 = SECURITY_CLASSIFICATION( '', '', #53 );
#36 = PRODUCT_DEFINITION_FORMATION_WITH_SPECIFIED_SOURCE( ' ', 'NONE', #38, .NOT_KNOWN. );
#37 = PRODUCT_DEFINITION( 'NONE', 'NONE', #36, #1 );
#38 = PRODUCT( '_FLEXA WIC-M 0512.300.012', '_FLEXA WIC-M 0512.300.012', 'PART-_FLEXA WIC-M 0512.300.012-DESC', ( #54 ) );
#39 = PRODUCT_DEFINITION_SHAPE( 'NONE', 'NONE', #37 );
#40 = ADVANCED_BREP_SHAPE_REPRESENTATION( '_FLEXA WIC-M 0512.300.012', ( #55, #56 ), #23 );
#43 = UNCERTAINTY_MEASURE_WITH_UNIT( LENGTH_MEASURE( 0.00100000000000000 ), #45, '', '' );
#45 =  ( CONVERSION_BASED_UNIT( 'MILLIMETRE', #59 )LENGTH_UNIT(  )NAMED_UNIT( #62 ) );
#46 =  ( NAMED_UNIT( #64 )PLANE_ANGLE_UNIT(  )SI_UNIT( $, .RADIAN. ) );
#47 =  ( NAMED_UNIT( #64 )SI_UNIT( $, .STERADIAN. )SOLID_ANGLE_UNIT(  ) );
#49 = COORDINATED_UNIVERSAL_TIME_OFFSET( 1, 0, .AHEAD. );
#50 = PERSON( '', 'UNSPECIFIED', $, $, $, $ );
#51 = ORGANIZATION( 'UNSPECIFIED', 'UNSPECIFIED', 'UNSPECIFIED' );
#52 = APPROVAL_STATUS( 'approved' );
#53 = SECURITY_CLASSIFICATION_LEVEL( 'unclassified' );
#54 = MECHANICAL_CONTEXT( '', #27, 'mechanical' );
#55 = MANIFOLD_SOLID_BREP( '_FLEXA WIC-M 0512.300.012', #70 );
#56 = AXIS2_PLACEMENT_3D( '', #71, #72, #73 );
#59 = LENGTH_MEASURE_WITH_UNIT( LENGTH_MEASURE( 1.00000000000000 ), #74 );
#62 = DIMENSIONAL_EXPONENTS( 1.00000000000000, 0.000000000000000, 0.000000000000000, 0.000000000000000, 0.000000000000000, 0.000000000000000, 0.000000000000000 );
#64 = DIMENSIONAL_EXPONENTS( 0.000000000000000, 0.000000000000000, 0.000000000000000, 0.000000000000000, 0.000000000000000, 0.000000000000000, 0.000000000000000 );
#70 = CLOSED_SHELL( '', ( #75, #76, #77, #78, #79, #80, #81, #82, #83, #84, #85, #86, #87, #88 ) );
#71 = CARTESIAN_POINT( '', ( 0.000000000000000, 0.000000000000000, 0.000000000000000 ) );
#72 = DIRECTION( '', ( 0.000000000000000, 0.000000000000000, 1.00000000000000 ) );
#73 = DIRECTION( '', ( 1.00000000000000, 0.000000000000000, 0.000000000000000 ) );
#74 =  ( LENGTH_UNIT(  )NAMED_UNIT( #62 )SI_UNIT( .MILLI., .METRE. ) );
#75 = ADVANCED_FACE( '', ( #90, #91 ), #92, .T. );
#76 = ADVANCED_FACE( '', ( #93, #94 ), #95, .F. );
#77 = ADVANCED_FACE( '', ( #96, #97 ), #98, .T. );
#78 = ADVANCED_FACE( '', ( #99, #100, #101 ), #102, .T. );
#79 = ADVANCED_FACE( '', ( #103, #104 ), #105, .T. );
#80 = ADVANCED_FACE( '', ( #106, #107 ), #108, .F. );
#81 = ADVANCED_FACE( '', ( #109, #110 ), #111, .F. );
#82 = ADVANCED_FACE( '', ( #112, #113 ), #114, .F. );
#83 = ADVANCED_FACE( '', ( #115, #116 ), #117, .T. );
#84 = ADVANCED_FACE( '', ( #118, #119 ), #120, .T. );
#85 = ADVANCED_FACE( '', ( #121, #122 ), #123, .F. );
#86 = ADVANCED_FACE( '', ( #124, #125 ), #126, .T. );
#87 = ADVANCED_FACE( '', ( #127, #128 ), #129, .F. );
#88 = ADVANCED_FACE( '', ( #130, #131 ), #132, .T. );
#90 = FACE_OUTER_BOUND( '', #133, .T. );
#91 = FACE_OUTER_BOUND( '', #134, .T. );
#92 = CYLINDRICAL_SURFACE( '', #135, 6.00000000000000 );
#93 = FACE_BOUND( '', #136, .T. );
#94 = FACE_OUTER_BOUND( '', #137, .T. );
#95 = PLANE( '', #138 );
#96 = FACE_OUTER_BOUND( '', #139, .T. );
#97 = FACE_OUTER_BOUND( '', #140, .T. );
#98 = CYLINDRICAL_SURFACE( '', #141, 6.00000000000000 );
#99 = FACE_BOUND( '', #142, .T. );
#100 = FACE_OUTER_BOUND( '', #143, .T. );
#101 = FACE_OUTER_BOUND( '', #144, .T. );
#102 = TOROIDAL_SURFACE( '', #145, 5.83000000000000, 0.750000000000000 );
#103 = FACE_OUTER_BOUND( '', #146, .T. );
#104 = FACE_BOUND( '', #147, .T. );
#105 = CONICAL_SURFACE( '', #148, 5.00000000000000, 0.785398163400000 );
#106 = FACE_OUTER_BOUND( '', #149, .T. );
#107 = FACE_BOUND( '', #150, .T. );
#108 = PLANE( '', #151 );
#109 = FACE_OUTER_BOUND( '', #152, .T. );
#110 = FACE_BOUND( '', #153, .T. );
#111 = CONICAL_SURFACE( '', #154, 5.08000000000000, 0.785398163400000 );
#112 = FACE_OUTER_BOUND( '', #155, .T. );
#113 = FACE_OUTER_BOUND( '', #156, .T. );
#114 = CYLINDRICAL_SURFACE( '', #157, 5.18800000000000 );
#115 = FACE_OUTER_BOUND( '', #158, .T. );
#116 = FACE_BOUND( '', #159, .T. );
#117 = PLANE( '', #160 );
#118 = FACE_BOUND( '', #161, .T. );
#119 = FACE_OUTER_BOUND( '', #162, .T. );
#120 = PLANE( '', #163 );
#121 = FACE_OUTER_BOUND( '', #164, .T. );
#122 = FACE_OUTER_BOUND( '', #165, .T. );
#123 = CYLINDRICAL_SURFACE( '', #166, 4.00000000000000 );
#124 = FACE_OUTER_BOUND( '', #167, .T. );
#125 = FACE_OUTER_BOUND( '', #168, .T. );
#126 = CYLINDRICAL_SURFACE( '', #169, 7.50000000000000 );
#127 = FACE_OUTER_BOUND( '', #170, .T. );
#128 = FACE_OUTER_BOUND( '', #171, .T. );
#129 = CYLINDRICAL_SURFACE( '', #172, 4.00000000000000 );
#130 = FACE_OUTER_BOUND( '', #173, .T. );
#131 = FACE_OUTER_BOUND( '', #174, .T. );
#132 = CYLINDRICAL_SURFACE( '', #175, 7.50000000000000 );
#133 = EDGE_LOOP( '', ( #176 ) );
#134 = EDGE_LOOP( '', ( #177 ) );
#135 = AXIS2_PLACEMENT_3D( '', #178, #179, #180 );
#136 = EDGE_LOOP( '', ( #181 ) );
#137 = EDGE_LOOP( '', ( #182 ) );
#138 = AXIS2_PLACEMENT_3D( '', #183, #184, #185 );
#139 = EDGE_LOOP( '', ( #186 ) );
#140 = EDGE_LOOP( '', ( #187 ) );
#141 = AXIS2_PLACEMENT_3D( '', #188, #189, #190 );
#142 = VERTEX_LOOP( '', #191 );
#143 = EDGE_LOOP( '', ( #192 ) );
#144 = EDGE_LOOP( '', ( #193 ) );
#145 = AXIS2_PLACEMENT_3D( '', #194, #195, #196 );
#146 = EDGE_LOOP( '', ( #197 ) );
#147 = EDGE_LOOP( '', ( #198 ) );
#148 = AXIS2_PLACEMENT_3D( '', #199, #200, #201 );
#149 = EDGE_LOOP( '', ( #202 ) );
#150 = EDGE_LOOP( '', ( #203 ) );
#151 = AXIS2_PLACEMENT_3D( '', #204, #205, #206 );
#152 = EDGE_LOOP( '', ( #207 ) );
#153 = EDGE_LOOP( '', ( #208 ) );
#154 = AXIS2_PLACEMENT_3D( '', #209, #210, #211 );
#155 = EDGE_LOOP( '', ( #212 ) );
#156 = EDGE_LOOP( '', ( #213 ) );
#157 = AXIS2_PLACEMENT_3D( '', #214, #215, #216 );
#158 = EDGE_LOOP( '', ( #217 ) );
#159 = EDGE_LOOP( '', ( #218 ) );
#160 = AXIS2_PLACEMENT_3D( '', #219, #220, #221 );
#161 = EDGE_LOOP( '', ( #222 ) );
#162 = EDGE_LOOP( '', ( #223 ) );
#163 = AXIS2_PLACEMENT_3D( '', #224, #225, #226 );
#164 = EDGE_LOOP( '', ( #227 ) );
#165 = EDGE_LOOP( '', ( #228 ) );
#166 = AXIS2_PLACEMENT_3D( '', #229, #230, #231 );
#167 = EDGE_LOOP( '', ( #232 ) );
#168 = EDGE_LOOP( '', ( #233 ) );
#169 = AXIS2_PLACEMENT_3D( '', #234, #235, #236 );
#170 = EDGE_LOOP( '', ( #237 ) );
#171 = EDGE_LOOP( '', ( #238 ) );
#172 = AXIS2_PLACEMENT_3D( '', #239, #240, #241 );
#173 = EDGE_LOOP( '', ( #242 ) );
#174 = EDGE_LOOP( '', ( #243 ) );
#175 = AXIS2_PLACEMENT_3D( '', #244, #245, #246 );
#176 = ORIENTED_EDGE( '', *, *, #247, .F. );
#177 = ORIENTED_EDGE( '', *, *, #248, .T. );
#178 = CARTESIAN_POINT( '', ( 0.000000000000000, 50.0000000000000, 0.000000000000000 ) );
#179 = DIRECTION( '', ( 0.000000000000000, -1.00000000000000, -0.000000000000000 ) );
#180 = DIRECTION( '', ( 0.000000000000000, 0.000000000000000, 1.00000000000000 ) );
#181 = ORIENTED_EDGE( '', *, *, #249, .T. );
#182 = ORIENTED_EDGE( '', *, *, #250, .F. );
#183 = CARTESIAN_POINT( '', ( 0.000000000000000, -12.2500000000000, 0.000000000000000 ) );
#184 = DIRECTION( '', ( 0.000000000000000, 1.00000000000000, 0.000000000000000 ) );
#185 = DIRECTION( '', ( 0.000000000000000, -0.000000000000000, 1.00000000000000 ) );
#186 = ORIENTED_EDGE( '', *, *, #251, .T. );
#187 = ORIENTED_EDGE( '', *, *, #252, .T. );
#188 = CARTESIAN_POINT( '', ( 0.000000000000000, 50.0000000000000, 0.000000000000000 ) );
#189 = DIRECTION( '', ( 0.000000000000000, -1.00000000000000, -0.000000000000000 ) );
#190 = DIRECTION( '', ( 0.000000000000000, 0.000000000000000, 1.00000000000000 ) );
#191 = VERTEX_POINT( '', #253 );
#192 = ORIENTED_EDGE( '', *, *, #251, .F. );
#193 = ORIENTED_EDGE( '', *, *, #248, .F. );
#194 = CARTESIAN_POINT( '', ( 0.000000000000000, -8.00000000000000, 0.000000000000000 ) );
#195 = DIRECTION( '', ( -0.000000000000000, 1.00000000000000, 0.000000000000000 ) );
#196 = DIRECTION( '', ( 0.000000000000000, 0.000000000000000, 1.00000000000000 ) );
#197 = ORIENTED_EDGE( '', *, *, #252, .F. );
#198 = ORIENTED_EDGE( '', *, *, #250, .T. );
#199 = CARTESIAN_POINT( '', ( 0.000000000000000, -12.2500000000000, 0.000000000000000 ) );
#200 = DIRECTION( '', ( -0.000000000000000, 1.00000000000000, -0.000000000000000 ) );
#201 = DIRECTION( '', ( 0.000000000000000, 0.000000000000000, 1.00000000000000 ) );
#202 = ORIENTED_EDGE( '', *, *, #254, .F. );
#203 = ORIENTED_EDGE( '', *, *, #247, .T. );
#204 = CARTESIAN_POINT( '', ( -6.00000000000000, -7.25000000000000, 0.000000000000000 ) );
#205 = DIRECTION( '', ( -0.000000000000000, 1.00000000000000, 0.000000000000000 ) );
#206 = DIRECTION( '', ( 0.000000000000000, 0.000000000000000, 1.00000000000000 ) );
#207 = ORIENTED_EDGE( '', *, *, #255, .T. );
#208 = ORIENTED_EDGE( '', *, *, #256, .F. );
#209 = CARTESIAN_POINT( '', ( 16.0000000000000, 4.75000000000000, 0.000000000000000 ) );
#210 = DIRECTION( '', ( 1.00000000000000, -0.000000000000000, -0.000000000000000 ) );
#211 = DIRECTION( '', ( -0.000000000000000, 0.000000000000000, -1.00000000000000 ) );
#212 = ORIENTED_EDGE( '', *, *, #256, .T. );
#213 = ORIENTED_EDGE( '', *, *, #257, .F. );
#214 = CARTESIAN_POINT( '', ( 17.0000000000000, 4.75000000000000, 0.000000000000000 ) );
#215 = DIRECTION( '', ( -1.00000000000000, -0.000000000000000, 0.000000000000000 ) );
#216 = DIRECTION( '', ( -0.000000000000000, 0.000000000000000, -1.00000000000000 ) );
#217 = ORIENTED_EDGE( '', *, *, #257, .T. );
#218 = ORIENTED_EDGE( '', *, *, #258, .T. );
#219 = CARTESIAN_POINT( '', ( 10.5000000000000, 4.75000000000000, 0.000000000000000 ) );
#220 = DIRECTION( '', ( 1.00000000000000, 0.000000000000000, -0.000000000000000 ) );
#221 = DIRECTION( '', ( -0.000000000000000, 0.000000000000000, -1.00000000000000 ) );
#222 = ORIENTED_EDGE( '', *, *, #255, .F. );
#223 = ORIENTED_EDGE( '', *, *, #259, .T. );
#224 = CARTESIAN_POINT( '', ( 17.0000000000000, 4.75000000000000, 0.000000000000000 ) );
#225 = DIRECTION( '', ( 1.00000000000000, 0.000000000000000, 0.000000000000000 ) );
#226 = DIRECTION( '', ( 0.000000000000000, 0.000000000000000, -1.00000000000000 ) );
#227 = ORIENTED_EDGE( '', *, *, #260, .T. );
#228 = ORIENTED_EDGE( '', *, *, #258, .F. );
#229 = CARTESIAN_POINT( '', ( -7.50000000000000, 4.75000000000000, 0.000000000000000 ) );
#230 = DIRECTION( '', ( -1.00000000000000, -0.000000000000000, -0.000000000000000 ) );
#231 = DIRECTION( '', ( 0.000000000000000, 0.000000000000000, -1.00000000000000 ) );
#232 = ORIENTED_EDGE( '', *, *, #261, .T. );
#233 = ORIENTED_EDGE( '', *, *, #259, .F. );
#234 = CARTESIAN_POINT( '', ( -7.50000000000000, 4.75000000000000, 0.000000000000000 ) );
#235 = DIRECTION( '', ( -1.00000000000000, -0.000000000000000, -0.000000000000000 ) );
#236 = DIRECTION( '', ( 0.000000000000000, 0.000000000000000, -1.00000000000000 ) );
#237 = ORIENTED_EDGE( '', *, *, #249, .F. );
#238 = ORIENTED_EDGE( '', *, *, #260, .F. );
#239 = CARTESIAN_POINT( '', ( 0.000000000000000, 12.2500000000000, 0.000000000000000 ) );
#240 = DIRECTION( '', ( -0.000000000000000, 1.00000000000000, 0.000000000000000 ) );
#241 = DIRECTION( '', ( 0.000000000000000, 0.000000000000000, -1.00000000000000 ) );
#242 = ORIENTED_EDGE( '', *, *, #254, .T. );
#243 = ORIENTED_EDGE( '', *, *, #261, .F. );
#244 = CARTESIAN_POINT( '', ( 0.000000000000000, 12.2500000000000, 0.000000000000000 ) );
#245 = DIRECTION( '', ( -0.000000000000000, 1.00000000000000, 0.000000000000000 ) );
#246 = DIRECTION( '', ( 0.000000000000000, 0.000000000000000, -1.00000000000000 ) );
#247 = EDGE_CURVE( '', #262, #262, #263, .T. );
#248 = EDGE_CURVE( '', #264, #264, #265, .F. );
#249 = EDGE_CURVE( '', #266, #266, #267, .T. );
#250 = EDGE_CURVE( '', #268, #268, #269, .T. );
#251 = EDGE_CURVE( '', #270, #270, #271, .F. );
#252 = EDGE_CURVE( '', #272, #272, #273, .T. );
#253 = CARTESIAN_POINT( '', ( 0.000000000000000, -8.00000000000000, 6.58000000000000 ) );
#254 = EDGE_CURVE( '', #274, #274, #275, .T. );
#255 = EDGE_CURVE( '', #276, #276, #277, .T. );
#256 = EDGE_CURVE( '', #278, #278, #279, .T. );
#257 = EDGE_CURVE( '', #280, #280, #281, .T. );
#258 = EDGE_CURVE( '', #282, #282, #283, .F. );
#259 = EDGE_CURVE( '', #284, #284, #285, .T. );
#260 = EDGE_CURVE( '', #286, #286, #287, .F. );
#261 = EDGE_CURVE( '', #288, #288, #289, .T. );
#262 = VERTEX_POINT( '', #290 );
#263 = CIRCLE( '', #291, 6.00000000000000 );
#264 = VERTEX_POINT( '', #292 );
#265 = CIRCLE( '', #293, 6.00000000000000 );
#266 = VERTEX_POINT( '', #294 );
#267 = CIRCLE( '', #295, 4.00000000000000 );
#268 = VERTEX_POINT( '', #296 );
#269 = CIRCLE( '', #297, 5.00000000000000 );
#270 = VERTEX_POINT( '', #298 );
#271 = CIRCLE( '', #299, 6.00000000000000 );
#272 = VERTEX_POINT( '', #300 );
#273 = CIRCLE( '', #301, 6.00000000000000 );
#274 = VERTEX_POINT( '', #302 );
#275 = CIRCLE( '', #303, 7.50000000000000 );
#276 = VERTEX_POINT( '', #304 );
#277 = CIRCLE( '', #305, 6.08000000000000 );
#278 = VERTEX_POINT( '', #306 );
#279 = CIRCLE( '', #307, 5.18800000000000 );
#280 = VERTEX_POINT( '', #308 );
#281 = CIRCLE( '', #309, 5.18800000000000 );
#282 = VERTEX_POINT( '', #310 );
#283 = CIRCLE( '', #311, 4.00000000000000 );
#284 = VERTEX_POINT( '', #312 );
#285 = CIRCLE( '', #313, 7.50000000000000 );
#286 = VERTEX_POINT( '', #314 );
#287 = ELLIPSE( '', #315, 5.65685424950000, 4.00000000000000 );
#288 = VERTEX_POINT( '', #316 );
#289 = ELLIPSE( '', #317, 10.6066017178000, 7.50000000000000 );
#290 = CARTESIAN_POINT( '', ( 0.000000000000000, -7.25000000000000, 6.00000000000000 ) );
#291 = AXIS2_PLACEMENT_3D( '', #318, #319, #320 );
#292 = CARTESIAN_POINT( '', ( 0.000000000000000, -7.26952070529001, -6.00000000000000 ) );
#293 = AXIS2_PLACEMENT_3D( '', #321, #322, #323 );
#294 = CARTESIAN_POINT( '', ( 4.00000000000000, -12.2500000000000, 0.000000000000000 ) );
#295 = AXIS2_PLACEMENT_3D( '', #324, #325, #326 );
#296 = CARTESIAN_POINT( '', ( 0.000000000000000, -12.2500000000000, 5.00000000000000 ) );
#297 = AXIS2_PLACEMENT_3D( '', #327, #328, #329 );
#298 = CARTESIAN_POINT( '', ( 0.000000000000000, -8.73047929470999, 6.00000000000000 ) );
#299 = AXIS2_PLACEMENT_3D( '', #330, #331, #332 );
#300 = CARTESIAN_POINT( '', ( 0.000000000000000, -11.2500000000000, 6.00000000000000 ) );
#301 = AXIS2_PLACEMENT_3D( '', #333, #334, #335 );
#302 = CARTESIAN_POINT( '', ( 0.000000000000000, -7.25000000000000, 7.50000000000000 ) );
#303 = AXIS2_PLACEMENT_3D( '', #336, #337, #338 );
#304 = CARTESIAN_POINT( '', ( 17.0000000000000, 4.75000000000000, -6.08000000000000 ) );
#305 = AXIS2_PLACEMENT_3D( '', #339, #340, #341 );
#306 = CARTESIAN_POINT( '', ( 16.1080000000000, 4.75000000000000, -5.18800000000000 ) );
#307 = AXIS2_PLACEMENT_3D( '', #342, #343, #344 );
#308 = CARTESIAN_POINT( '', ( 10.5000000000000, 4.75000000000000, -5.18800000000000 ) );
#309 = AXIS2_PLACEMENT_3D( '', #345, #346, #347 );
#310 = CARTESIAN_POINT( '', ( 10.5000000000000, 4.75000000000000, -4.00000000000000 ) );
#311 = AXIS2_PLACEMENT_3D( '', #348, #349, #350 );
#312 = CARTESIAN_POINT( '', ( 17.0000000000000, 4.75000000000000, -7.50000000000000 ) );
#313 = AXIS2_PLACEMENT_3D( '', #351, #352, #353 );
#314 = CARTESIAN_POINT( '', ( 4.00000000000000, 0.749999999999998, 0.000000000000000 ) );
#315 = AXIS2_PLACEMENT_3D( '', #354, #355, #356 );
#316 = CARTESIAN_POINT( '', ( 7.50000000000000, -2.75000000000000, 0.000000000000000 ) );
#317 = AXIS2_PLACEMENT_3D( '', #357, #358, #359 );
#318 = CARTESIAN_POINT( '', ( 0.000000000000000, -7.25000000000000, 0.000000000000000 ) );
#319 = DIRECTION( '', ( -0.000000000000000, 1.00000000000000, 0.000000000000000 ) );
#320 = DIRECTION( '', ( 0.000000000000000, 0.000000000000000, 1.00000000000000 ) );
#321 = CARTESIAN_POINT( '', ( 0.000000000000000, -7.26952070529001, 0.000000000000000 ) );
#322 = DIRECTION( '', ( 0.000000000000000, -1.00000000000000, 0.000000000000000 ) );
#323 = DIRECTION( '', ( 0.000000000000000, 0.000000000000000, -1.00000000000000 ) );
#324 = CARTESIAN_POINT( '', ( 0.000000000000000, -12.2500000000000, 0.000000000000000 ) );
#325 = DIRECTION( '', ( -0.000000000000000, 1.00000000000000, 0.000000000000000 ) );
#326 = DIRECTION( '', ( 1.00000000000000, 0.000000000000000, 0.000000000000000 ) );
#327 = CARTESIAN_POINT( '', ( 0.000000000000000, -12.2500000000000, 0.000000000000000 ) );
#328 = DIRECTION( '', ( -0.000000000000000, 1.00000000000000, 0.000000000000000 ) );
#329 = DIRECTION( '', ( 0.000000000000000, 0.000000000000000, 1.00000000000000 ) );
#330 = CARTESIAN_POINT( '', ( 0.000000000000000, -8.73047929470999, 0.000000000000000 ) );
#331 = DIRECTION( '', ( -0.000000000000000, 1.00000000000000, 0.000000000000000 ) );
#332 = DIRECTION( '', ( 0.000000000000000, 0.000000000000000, 1.00000000000000 ) );
#333 = CARTESIAN_POINT( '', ( 0.000000000000000, -11.2500000000000, 0.000000000000000 ) );
#334 = DIRECTION( '', ( -0.000000000000000, 1.00000000000000, 0.000000000000000 ) );
#335 = DIRECTION( '', ( 0.000000000000000, 0.000000000000000, 1.00000000000000 ) );
#336 = CARTESIAN_POINT( '', ( 0.000000000000000, -7.25000000000000, 0.000000000000000 ) );
#337 = DIRECTION( '', ( -0.000000000000000, 1.00000000000000, 0.000000000000000 ) );
#338 = DIRECTION( '', ( 0.000000000000000, 0.000000000000000, 1.00000000000000 ) );
#339 = CARTESIAN_POINT( '', ( 17.0000000000000, 4.75000000000000, 0.000000000000000 ) );
#340 = DIRECTION( '', ( 1.00000000000000, 0.000000000000000, -0.000000000000000 ) );
#341 = DIRECTION( '', ( -0.000000000000000, 0.000000000000000, -1.00000000000000 ) );
#342 = CARTESIAN_POINT( '', ( 16.1080000000000, 4.75000000000000, 0.000000000000000 ) );
#343 = DIRECTION( '', ( 1.00000000000000, 0.000000000000000, -0.000000000000000 ) );
#344 = DIRECTION( '', ( -0.000000000000000, 0.000000000000000, -1.00000000000000 ) );
#345 = CARTESIAN_POINT( '', ( 10.5000000000000, 4.75000000000000, 0.000000000000000 ) );
#346 = DIRECTION( '', ( 1.00000000000000, 0.000000000000000, -0.000000000000000 ) );
#347 = DIRECTION( '', ( -0.000000000000000, 0.000000000000000, -1.00000000000000 ) );
#348 = CARTESIAN_POINT( '', ( 10.5000000000000, 4.75000000000000, 0.000000000000000 ) );
#349 = DIRECTION( '', ( 1.00000000000000, 0.000000000000000, -0.000000000000000 ) );
#350 = DIRECTION( '', ( -0.000000000000000, 0.000000000000000, -1.00000000000000 ) );
#351 = CARTESIAN_POINT( '', ( 17.0000000000000, 4.75000000000000, 0.000000000000000 ) );
#352 = DIRECTION( '', ( 1.00000000000000, 0.000000000000000, 0.000000000000000 ) );
#353 = DIRECTION( '', ( 0.000000000000000, 0.000000000000000, -1.00000000000000 ) );
#354 = CARTESIAN_POINT( '', ( 0.000000000000000, 4.75000000000000, 0.000000000000000 ) );
#355 = DIRECTION( '', ( 0.707106781186548, 0.707106781186547, 0.000000000000000 ) );
#356 = DIRECTION( '', ( 0.707106781186547, -0.707106781186548, 0.000000000000000 ) );
#357 = CARTESIAN_POINT( '', ( 0.000000000000000, 4.75000000000000, 0.000000000000000 ) );
#358 = DIRECTION( '', ( 0.707106781186548, 0.707106781186548, 0.000000000000000 ) );
#359 = DIRECTION( '', ( 0.707106781186548, -0.707106781186548, 0.000000000000000 ) );
ENDSEC;
END-ISO-10303-21;
