ISO-10303-21;
HEADER;
FILE_DESCRIPTION( ( 'STEP AP203' ), '1' );
FILE_NAME( 'p:/temp/worker_96/temp/exporttempdir_3432_44_eumyl/format_0/FLEXA WIC-P 0512.100.013.stp', '2020-03-10T14:33:34', ( '' ), ( '' ), ' ', 'PARTsolutions', ' ' );
FILE_SCHEMA( ( 'CONFIG_CONTROL_DESIGN' ) );
ENDSEC;
DATA;
#1 = DESIGN_CONTEXT( '', #27, 'design' );
#2 = APPLICATION_PROTOCOL_DEFINITION( 'international standard', 'config_control_design', 1994, #27 );
#3 = PRODUCT_CATEGORY_RELATIONSHIP( 'NONE', 'NONE', #28, #29 );
#4 = DATE_AND_TIME( #30, #31 );
#5 = DATE_TIME_ROLE( 'creation_date' );
#6 = DATE_TIME_ROLE( 'classification_date' );
#7 = PERSON_AND_ORGANIZATION_ROLE( 'creator' );
#8 = PERSON_AND_ORGANIZATION_ROLE( 'design_supplier' );
#9 = PERSON_AND_ORGANIZATION_ROLE( 'classification_officer' );
#10 = PERSON_AND_ORGANIZATION_ROLE( 'design_owner' );
#11 = APPROVAL_PERSON_ORGANIZATION( #32, #33, #34 );
#12 = APPROVAL_DATE_TIME( #4, #33 );
#13 = CC_DESIGN_APPROVAL( #33, ( #35, #36, #37 ) );
#14 = CC_DESIGN_DATE_AND_TIME_ASSIGNMENT( #4, #5, ( #37 ) );
#15 = CC_DESIGN_DATE_AND_TIME_ASSIGNMENT( #4, #6, ( #35 ) );
#16 = CC_DESIGN_PERSON_AND_ORGANIZATION_ASSIGNMENT( #32, #10, ( #38 ) );
#17 = CC_DESIGN_PERSON_AND_ORGANIZATION_ASSIGNMENT( #32, #7, ( #37 ) );
#18 = CC_DESIGN_PERSON_AND_ORGANIZATION_ASSIGNMENT( #32, #7, ( #36 ) );
#19 = CC_DESIGN_PERSON_AND_ORGANIZATION_ASSIGNMENT( #32, #8, ( #36 ) );
#20 = CC_DESIGN_SECURITY_CLASSIFICATION( #35, ( #36 ) );
#21 = CC_DESIGN_PERSON_AND_ORGANIZATION_ASSIGNMENT( #32, #9, ( #35 ) );
#22 = SHAPE_DEFINITION_REPRESENTATION( #39, #40 );
#23 =  ( GEOMETRIC_REPRESENTATION_CONTEXT( 3 )GLOBAL_UNCERTAINTY_ASSIGNED_CONTEXT( ( #43 ) )GLOBAL_UNIT_ASSIGNED_CONTEXT( ( #45, #46, #47 ) )REPRESENTATION_CONTEXT( 'NONE', 'WORKSPACE' ) );
#27 = APPLICATION_CONTEXT( 'configuration controlled 3D designs of mechanical parts and assemblies' );
#28 = PRODUCT_CATEGORY( 'part', 'NONE' );
#29 = PRODUCT_RELATED_PRODUCT_CATEGORY( 'detail', ' ', ( #38 ) );
#30 = CALENDAR_DATE( 2020, 10, 2 );
#31 = LOCAL_TIME( 15, 33, 34.0000000000000, #49 );
#32 = PERSON_AND_ORGANIZATION( #50, #51 );
#33 = APPROVAL( #52, 'SOLID MODEL' );
#34 = APPROVAL_ROLE( 'APPROVED' );
#35 = SECURITY_CLASSIFICATION( '', '', #53 );
#36 = PRODUCT_DEFINITION_FORMATION_WITH_SPECIFIED_SOURCE( ' ', 'NONE', #38, .NOT_KNOWN. );
#37 = PRODUCT_DEFINITION( 'NONE', 'NONE', #36, #1 );
#38 = PRODUCT( '_FLEXA WIC-P 0512.100.013', '_FLEXA WIC-P 0512.100.013', 'PART-_FLEXA WIC-P 0512.100.013-DESC', ( #54 ) );
#39 = PRODUCT_DEFINITION_SHAPE( 'NONE', 'NONE', #37 );
#40 = ADVANCED_BREP_SHAPE_REPRESENTATION( '_FLEXA WIC-P 0512.100.013', ( #55, #56 ), #23 );
#43 = UNCERTAINTY_MEASURE_WITH_UNIT( LENGTH_MEASURE( 0.00100000000000000 ), #45, '', '' );
#45 =  ( CONVERSION_BASED_UNIT( 'MILLIMETRE', #59 )LENGTH_UNIT(  )NAMED_UNIT( #62 ) );
#46 =  ( NAMED_UNIT( #64 )PLANE_ANGLE_UNIT(  )SI_UNIT( $, .RADIAN. ) );
#47 =  ( NAMED_UNIT( #64 )SI_UNIT( $, .STERADIAN. )SOLID_ANGLE_UNIT(  ) );
#49 = COORDINATED_UNIVERSAL_TIME_OFFSET( 1, 0, .AHEAD. );
#50 = PERSON( '', 'UNSPECIFIED', $, $, $, $ );
#51 = ORGANIZATION( 'UNSPECIFIED', 'UNSPECIFIED', 'UNSPECIFIED' );
#52 = APPROVAL_STATUS( 'approved' );
#53 = SECURITY_CLASSIFICATION_LEVEL( 'unclassified' );
#54 = MECHANICAL_CONTEXT( '', #27, 'mechanical' );
#55 = MANIFOLD_SOLID_BREP( '_FLEXA WIC-P 0512.100.013', #70 );
#56 = AXIS2_PLACEMENT_3D( '', #71, #72, #73 );
#59 = LENGTH_MEASURE_WITH_UNIT( LENGTH_MEASURE( 1.00000000000000 ), #74 );
#62 = DIMENSIONAL_EXPONENTS( 1.00000000000000, 0.000000000000000, 0.000000000000000, 0.000000000000000, 0.000000000000000, 0.000000000000000, 0.000000000000000 );
#64 = DIMENSIONAL_EXPONENTS( 0.000000000000000, 0.000000000000000, 0.000000000000000, 0.000000000000000, 0.000000000000000, 0.000000000000000, 0.000000000000000 );
#70 = CLOSED_SHELL( '', ( #75, #76, #77, #78, #79, #80, #81, #82, #83, #84, #85, #86, #87, #88, #89, #90, #91 ) );
#71 = CARTESIAN_POINT( '', ( 0.000000000000000, 0.000000000000000, 0.000000000000000 ) );
#72 = DIRECTION( '', ( 0.000000000000000, 0.000000000000000, 1.00000000000000 ) );
#73 = DIRECTION( '', ( 1.00000000000000, 0.000000000000000, 0.000000000000000 ) );
#74 =  ( LENGTH_UNIT(  )NAMED_UNIT( #62 )SI_UNIT( .MILLI., .METRE. ) );
#75 = ADVANCED_FACE( '', ( #93, #94 ), #95, .T. );
#76 = ADVANCED_FACE( '', ( #96 ), #97, .T. );
#77 = ADVANCED_FACE( '', ( #98, #99 ), #100, .T. );
#78 = ADVANCED_FACE( '', ( #101, #102 ), #103, .F. );
#79 = ADVANCED_FACE( '', ( #104 ), #105, .F. );
#80 = ADVANCED_FACE( '', ( #106, #107 ), #108, .T. );
#81 = ADVANCED_FACE( '', ( #109, #110 ), #111, .F. );
#82 = ADVANCED_FACE( '', ( #112 ), #113, .T. );
#83 = ADVANCED_FACE( '', ( #114, #115 ), #116, .T. );
#84 = ADVANCED_FACE( '', ( #117, #118 ), #119, .T. );
#85 = ADVANCED_FACE( '', ( #120 ), #121, .T. );
#86 = ADVANCED_FACE( '', ( #122, #123 ), #124, .T. );
#87 = ADVANCED_FACE( '', ( #125, #126 ), #127, .T. );
#88 = ADVANCED_FACE( '', ( #128, #129 ), #130, .F. );
#89 = ADVANCED_FACE( '', ( #131, #132 ), #133, .F. );
#90 = ADVANCED_FACE( '', ( #134, #135 ), #136, .F. );
#91 = ADVANCED_FACE( '', ( #137, #138, #139 ), #140, .T. );
#93 = FACE_OUTER_BOUND( '', #141, .T. );
#94 = FACE_OUTER_BOUND( '', #142, .T. );
#95 = CYLINDRICAL_SURFACE( '', #143, 12.7500000000000 );
#96 = FACE_OUTER_BOUND( '', #144, .T. );
#97 = CONICAL_SURFACE( '', #145, 11.5000000000000, 0.785398163400000 );
#98 = FACE_OUTER_BOUND( '', #146, .T. );
#99 = FACE_BOUND( '', #147, .T. );
#100 = PLANE( '', #148 );
#101 = FACE_OUTER_BOUND( '', #149, .T. );
#102 = FACE_BOUND( '', #150, .T. );
#103 = CONICAL_SURFACE( '', #151, 9.53000000000000, 0.785398163400000 );
#104 = FACE_OUTER_BOUND( '', #152, .T. );
#105 = SPHERICAL_SURFACE( '', #153, 8.00000000000000 );
#106 = FACE_BOUND( '', #154, .T. );
#107 = FACE_OUTER_BOUND( '', #155, .T. );
#108 = PLANE( '', #156 );
#109 = FACE_OUTER_BOUND( '', #157, .T. );
#110 = FACE_OUTER_BOUND( '', #158, .T. );
#111 = CYLINDRICAL_SURFACE( '', #159, 9.86500000000000 );
#112 = FACE_OUTER_BOUND( '', #160, .T. );
#113 = SPHERICAL_SURFACE( '', #161, 11.5000000000000 );
#114 = FACE_OUTER_BOUND( '', #162, .T. );
#115 = FACE_OUTER_BOUND( '', #163, .T. );
#116 = CYLINDRICAL_SURFACE( '', #164, 11.5000000000000 );
#117 = FACE_BOUND( '', #165, .T. );
#118 = FACE_OUTER_BOUND( '', #166, .T. );
#119 = PLANE( '', #167 );
#120 = FACE_OUTER_BOUND( '', #168, .T. );
#121 = CYLINDRICAL_SURFACE( '', #169, 11.5000000000000 );
#122 = FACE_OUTER_BOUND( '', #170, .T. );
#123 = FACE_BOUND( '', #171, .T. );
#124 = CONICAL_SURFACE( '', #172, 9.20000000000000, 0.785398163400000 );
#125 = FACE_OUTER_BOUND( '', #173, .T. );
#126 = FACE_OUTER_BOUND( '', #174, .T. );
#127 = CYLINDRICAL_SURFACE( '', #175, 10.2000000000000 );
#128 = FACE_OUTER_BOUND( '', #176, .T. );
#129 = FACE_OUTER_BOUND( '', #177, .T. );
#130 = CYLINDRICAL_SURFACE( '', #178, 8.00000000000000 );
#131 = FACE_OUTER_BOUND( '', #179, .T. );
#132 = FACE_OUTER_BOUND( '', #180, .T. );
#133 = CYLINDRICAL_SURFACE( '', #181, 8.00000000000000 );
#134 = FACE_OUTER_BOUND( '', #182, .T. );
#135 = FACE_BOUND( '', #183, .T. );
#136 = PLANE( '', #184 );
#137 = FACE_BOUND( '', #185, .T. );
#138 = FACE_OUTER_BOUND( '', #186, .T. );
#139 = FACE_OUTER_BOUND( '', #187, .T. );
#140 = TOROIDAL_SURFACE( '', #188, 11.2000000000000, 1.00000000000000 );
#141 = EDGE_LOOP( '', ( #189 ) );
#142 = EDGE_LOOP( '', ( #190, #191 ) );
#143 = AXIS2_PLACEMENT_3D( '', #192, #193, #194 );
#144 = EDGE_LOOP( '', ( #195, #196, #197, #198 ) );
#145 = AXIS2_PLACEMENT_3D( '', #199, #200, #201 );
#146 = EDGE_LOOP( '', ( #202 ) );
#147 = EDGE_LOOP( '', ( #203 ) );
#148 = AXIS2_PLACEMENT_3D( '', #204, #205, #206 );
#149 = EDGE_LOOP( '', ( #207 ) );
#150 = EDGE_LOOP( '', ( #208 ) );
#151 = AXIS2_PLACEMENT_3D( '', #209, #210, #211 );
#152 = EDGE_LOOP( '', ( #212, #213 ) );
#153 = AXIS2_PLACEMENT_3D( '', #214, #215, #216 );
#154 = EDGE_LOOP( '', ( #217 ) );
#155 = EDGE_LOOP( '', ( #218 ) );
#156 = AXIS2_PLACEMENT_3D( '', #219, #220, #221 );
#157 = EDGE_LOOP( '', ( #222 ) );
#158 = EDGE_LOOP( '', ( #223 ) );
#159 = AXIS2_PLACEMENT_3D( '', #224, #225, #226 );
#160 = EDGE_LOOP( '', ( #227, #228 ) );
#161 = AXIS2_PLACEMENT_3D( '', #229, #230, #231 );
#162 = EDGE_LOOP( '', ( #232, #233, #234, #235, #236, #237 ) );
#163 = EDGE_LOOP( '', ( #238 ) );
#164 = AXIS2_PLACEMENT_3D( '', #239, #240, #241 );
#165 = EDGE_LOOP( '', ( #242 ) );
#166 = EDGE_LOOP( '', ( #243 ) );
#167 = AXIS2_PLACEMENT_3D( '', #244, #245, #246 );
#168 = EDGE_LOOP( '', ( #247, #248, #249, #250 ) );
#169 = AXIS2_PLACEMENT_3D( '', #251, #252, #253 );
#170 = EDGE_LOOP( '', ( #254 ) );
#171 = EDGE_LOOP( '', ( #255 ) );
#172 = AXIS2_PLACEMENT_3D( '', #256, #257, #258 );
#173 = EDGE_LOOP( '', ( #259 ) );
#174 = EDGE_LOOP( '', ( #260 ) );
#175 = AXIS2_PLACEMENT_3D( '', #261, #262, #263 );
#176 = EDGE_LOOP( '', ( #264, #265 ) );
#177 = EDGE_LOOP( '', ( #266 ) );
#178 = AXIS2_PLACEMENT_3D( '', #267, #268, #269 );
#179 = EDGE_LOOP( '', ( #270, #271 ) );
#180 = EDGE_LOOP( '', ( #272 ) );
#181 = AXIS2_PLACEMENT_3D( '', #273, #274, #275 );
#182 = EDGE_LOOP( '', ( #276 ) );
#183 = EDGE_LOOP( '', ( #277 ) );
#184 = AXIS2_PLACEMENT_3D( '', #278, #279, #280 );
#185 = VERTEX_LOOP( '', #281 );
#186 = EDGE_LOOP( '', ( #282 ) );
#187 = EDGE_LOOP( '', ( #283 ) );
#188 = AXIS2_PLACEMENT_3D( '', #284, #285, #286 );
#189 = ORIENTED_EDGE( '', *, *, #287, .T. );
#190 = ORIENTED_EDGE( '', *, *, #288, .F. );
#191 = ORIENTED_EDGE( '', *, *, #289, .F. );
#192 = CARTESIAN_POINT( '', ( 0.000000000000000, 50.0000000000000, 0.000000000000000 ) );
#193 = DIRECTION( '', ( 0.000000000000000, -1.00000000000000, -0.000000000000000 ) );
#194 = DIRECTION( '', ( 0.000000000000000, 0.000000000000000, 1.00000000000000 ) );
#195 = ORIENTED_EDGE( '', *, *, #290, .F. );
#196 = ORIENTED_EDGE( '', *, *, #291, .F. );
#197 = ORIENTED_EDGE( '', *, *, #292, .F. );
#198 = ORIENTED_EDGE( '', *, *, #289, .T. );
#199 = CARTESIAN_POINT( '', ( 0.000000000000000, -3.25000000000000, 0.000000000000000 ) );
#200 = DIRECTION( '', ( 0.000000000000000, -1.00000000000000, -0.000000000000000 ) );
#201 = DIRECTION( '', ( 0.000000000000000, 0.000000000000000, -1.00000000000000 ) );
#202 = ORIENTED_EDGE( '', *, *, #293, .T. );
#203 = ORIENTED_EDGE( '', *, *, #294, .F. );
#204 = CARTESIAN_POINT( '', ( 12.5000000000000, 6.50000000000000, 0.000000000000000 ) );
#205 = DIRECTION( '', ( 1.00000000000000, 0.000000000000000, -0.000000000000000 ) );
#206 = DIRECTION( '', ( -0.000000000000000, 0.000000000000000, -1.00000000000000 ) );
#207 = ORIENTED_EDGE( '', *, *, #295, .T. );
#208 = ORIENTED_EDGE( '', *, *, #296, .F. );
#209 = CARTESIAN_POINT( '', ( 21.5000000000000, 6.50000000000000, 0.000000000000000 ) );
#210 = DIRECTION( '', ( 1.00000000000000, -0.000000000000000, -0.000000000000000 ) );
#211 = DIRECTION( '', ( -0.000000000000000, 0.000000000000000, -1.00000000000000 ) );
#212 = ORIENTED_EDGE( '', *, *, #297, .T. );
#213 = ORIENTED_EDGE( '', *, *, #298, .F. );
#214 = CARTESIAN_POINT( '', ( 0.000000000000000, 6.50000000000000, 0.000000000000000 ) );
#215 = DIRECTION( '', ( 0.000000000000000, 0.000000000000000, -1.00000000000000 ) );
#216 = DIRECTION( '', ( 0.000000000000000, -1.00000000000000, 0.000000000000000 ) );
#217 = ORIENTED_EDGE( '', *, *, #299, .T. );
#218 = ORIENTED_EDGE( '', *, *, #287, .F. );
#219 = CARTESIAN_POINT( '', ( -12.7500000000000, -6.00000000000000, 0.000000000000000 ) );
#220 = DIRECTION( '', ( 0.000000000000000, -1.00000000000000, 0.000000000000000 ) );
#221 = DIRECTION( '', ( 0.000000000000000, 0.000000000000000, -1.00000000000000 ) );
#222 = ORIENTED_EDGE( '', *, *, #296, .T. );
#223 = ORIENTED_EDGE( '', *, *, #293, .F. );
#224 = CARTESIAN_POINT( '', ( 22.5000000000000, 6.50000000000000, 0.000000000000000 ) );
#225 = DIRECTION( '', ( -1.00000000000000, -0.000000000000000, 0.000000000000000 ) );
#226 = DIRECTION( '', ( -0.000000000000000, 0.000000000000000, -1.00000000000000 ) );
#227 = ORIENTED_EDGE( '', *, *, #300, .T. );
#228 = ORIENTED_EDGE( '', *, *, #301, .T. );
#229 = CARTESIAN_POINT( '', ( 1.73472347597681E-15, 6.50000000000000, 0.000000000000000 ) );
#230 = DIRECTION( '', ( 0.000000000000000, 1.00000000000000, 0.000000000000000 ) );
#231 = DIRECTION( '', ( -1.00000000000000, 0.000000000000000, 0.000000000000000 ) );
#232 = ORIENTED_EDGE( '', *, *, #302, .T. );
#233 = ORIENTED_EDGE( '', *, *, #290, .T. );
#234 = ORIENTED_EDGE( '', *, *, #288, .T. );
#235 = ORIENTED_EDGE( '', *, *, #292, .T. );
#236 = ORIENTED_EDGE( '', *, *, #303, .T. );
#237 = ORIENTED_EDGE( '', *, *, #300, .F. );
#238 = ORIENTED_EDGE( '', *, *, #304, .F. );
#239 = CARTESIAN_POINT( '', ( 22.5000000000000, 6.50000000000000, 0.000000000000000 ) );
#240 = DIRECTION( '', ( 1.00000000000000, -0.000000000000000, -0.000000000000000 ) );
#241 = DIRECTION( '', ( 0.000000000000000, 0.000000000000000, 1.00000000000000 ) );
#242 = ORIENTED_EDGE( '', *, *, #295, .F. );
#243 = ORIENTED_EDGE( '', *, *, #304, .T. );
#244 = CARTESIAN_POINT( '', ( 22.5000000000000, 6.50000000000000, 0.000000000000000 ) );
#245 = DIRECTION( '', ( 1.00000000000000, 0.000000000000000, 0.000000000000000 ) );
#246 = DIRECTION( '', ( 0.000000000000000, 0.000000000000000, -1.00000000000000 ) );
#247 = ORIENTED_EDGE( '', *, *, #303, .F. );
#248 = ORIENTED_EDGE( '', *, *, #291, .T. );
#249 = ORIENTED_EDGE( '', *, *, #302, .F. );
#250 = ORIENTED_EDGE( '', *, *, #301, .F. );
#251 = CARTESIAN_POINT( '', ( 0.000000000000000, 18.0000000000000, 0.000000000000000 ) );
#252 = DIRECTION( '', ( 9.86864910777917E-17, -1.00000000000000, -0.000000000000000 ) );
#253 = DIRECTION( '', ( -1.00000000000000, -9.86864910777917E-17, 0.000000000000000 ) );
#254 = ORIENTED_EDGE( '', *, *, #305, .F. );
#255 = ORIENTED_EDGE( '', *, *, #306, .T. );
#256 = CARTESIAN_POINT( '', ( 0.000000000000000, -18.0000000000000, 0.000000000000000 ) );
#257 = DIRECTION( '', ( -0.000000000000000, 1.00000000000000, -0.000000000000000 ) );
#258 = DIRECTION( '', ( 0.000000000000000, 0.000000000000000, 1.00000000000000 ) );
#259 = ORIENTED_EDGE( '', *, *, #307, .F. );
#260 = ORIENTED_EDGE( '', *, *, #305, .T. );
#261 = CARTESIAN_POINT( '', ( 0.000000000000000, 50.0000000000000, 0.000000000000000 ) );
#262 = DIRECTION( '', ( 0.000000000000000, -1.00000000000000, -0.000000000000000 ) );
#263 = DIRECTION( '', ( 0.000000000000000, 0.000000000000000, 1.00000000000000 ) );
#264 = ORIENTED_EDGE( '', *, *, #297, .F. );
#265 = ORIENTED_EDGE( '', *, *, #308, .T. );
#266 = ORIENTED_EDGE( '', *, *, #294, .T. );
#267 = CARTESIAN_POINT( '', ( 34.0000000000000, 6.50000000000000, 0.000000000000000 ) );
#268 = DIRECTION( '', ( 1.00000000000000, -0.000000000000000, -0.000000000000000 ) );
#269 = DIRECTION( '', ( 0.000000000000000, 0.000000000000000, 1.00000000000000 ) );
#270 = ORIENTED_EDGE( '', *, *, #298, .T. );
#271 = ORIENTED_EDGE( '', *, *, #308, .F. );
#272 = ORIENTED_EDGE( '', *, *, #309, .F. );
#273 = CARTESIAN_POINT( '', ( 0.000000000000000, 6.50000000000000, 0.000000000000000 ) );
#274 = DIRECTION( '', ( -0.000000000000000, 1.00000000000000, 0.000000000000000 ) );
#275 = DIRECTION( '', ( 0.000000000000000, 0.000000000000000, -1.00000000000000 ) );
#276 = ORIENTED_EDGE( '', *, *, #306, .F. );
#277 = ORIENTED_EDGE( '', *, *, #309, .T. );
#278 = CARTESIAN_POINT( '', ( 3.55271367880050E-15, -18.0000000000000, 0.000000000000000 ) );
#279 = DIRECTION( '', ( -9.86864910777917E-17, 1.00000000000000, 0.000000000000000 ) );
#280 = DIRECTION( '', ( -1.00000000000000, -9.86864910777917E-17, 0.000000000000000 ) );
#281 = VERTEX_POINT( '', #310 );
#282 = ORIENTED_EDGE( '', *, *, #307, .T. );
#283 = ORIENTED_EDGE( '', *, *, #299, .F. );
#284 = CARTESIAN_POINT( '', ( 0.000000000000000, -7.00000000000000, 0.000000000000000 ) );
#285 = DIRECTION( '', ( -0.000000000000000, 1.00000000000000, 0.000000000000000 ) );
#286 = DIRECTION( '', ( 0.000000000000000, 0.000000000000000, 1.00000000000000 ) );
#287 = EDGE_CURVE( '', #311, #311, #312, .T. );
#288 = EDGE_CURVE( '', #313, #314, #315, .T. );
#289 = EDGE_CURVE( '', #314, #313, #316, .T. );
#290 = EDGE_CURVE( '', #317, #313, #318, .T. );
#291 = EDGE_CURVE( '', #319, #317, #320, .T. );
#292 = EDGE_CURVE( '', #314, #319, #321, .T. );
#293 = EDGE_CURVE( '', #322, #322, #323, .T. );
#294 = EDGE_CURVE( '', #324, #324, #325, .T. );
#295 = EDGE_CURVE( '', #326, #326, #327, .T. );
#296 = EDGE_CURVE( '', #328, #328, #329, .T. );
#297 = EDGE_CURVE( '', #330, #331, #332, .T. );
#298 = EDGE_CURVE( '', #330, #331, #333, .T. );
#299 = EDGE_CURVE( '', #334, #334, #335, .T. );
#300 = EDGE_CURVE( '', #336, #337, #338, .F. );
#301 = EDGE_CURVE( '', #337, #336, #339, .T. );
#302 = EDGE_CURVE( '', #336, #317, #340, .T. );
#303 = EDGE_CURVE( '', #319, #337, #341, .T. );
#304 = EDGE_CURVE( '', #342, #342, #343, .T. );
#305 = EDGE_CURVE( '', #344, #344, #345, .T. );
#306 = EDGE_CURVE( '', #346, #346, #347, .T. );
#307 = EDGE_CURVE( '', #348, #348, #349, .T. );
#308 = EDGE_CURVE( '', #330, #331, #350, .T. );
#309 = EDGE_CURVE( '', #351, #351, #352, .T. );
#310 = CARTESIAN_POINT( '', ( 0.000000000000000, -7.00000000000000, 12.2000000000000 ) );
#311 = VERTEX_POINT( '', #353 );
#312 = CIRCLE( '', #354, 12.7500000000000 );
#313 = VERTEX_POINT( '', #355 );
#314 = VERTEX_POINT( '', #356 );
#315 = B_SPLINE_CURVE_WITH_KNOTS( '', 3, ( #357, #358, #359, #360, #361, #362, #363, #364, #365, #366, #367, #368 ), .UNSPECIFIED., .F., .F., ( 4, 2, 2, 2, 2, 4 ), ( 0.000000000000000, 0.00171150188622919, 0.00256725282934378, 0.00342300377245838, 0.00513450565868757, 0.00684600754491676 ), .UNSPECIFIED. );
#316 = CIRCLE( '', #369, 12.7500000000000 );
#317 = VERTEX_POINT( '', #370 );
#318 = B_SPLINE_CURVE_WITH_KNOTS( '', 3, ( #371, #372, #373, #374, #375, #376 ), .UNSPECIFIED., .F., .F., ( 4, 2, 4 ), ( 0.000357120936791688, 0.00233469467515333, 0.00431226841351498 ), .UNSPECIFIED. );
#319 = VERTEX_POINT( '', #377 );
#320 = CIRCLE( '', #378, 11.5000000000000 );
#321 = B_SPLINE_CURVE_WITH_KNOTS( '', 3, ( #379, #380, #381, #382, #383, #384, #385, #386 ), .UNSPECIFIED., .F., .F., ( 4, 2, 2, 4 ), ( 0.000512440123328380, 0.00248742425725242, 0.00347491632421445, 0.00446240839117647 ), .UNSPECIFIED. );
#322 = VERTEX_POINT( '', #387 );
#323 = CIRCLE( '', #388, 9.86500000000000 );
#324 = VERTEX_POINT( '', #389 );
#325 = CIRCLE( '', #390, 8.00000000000000 );
#326 = VERTEX_POINT( '', #391 );
#327 = CIRCLE( '', #392, 10.5300000000000 );
#328 = VERTEX_POINT( '', #393 );
#329 = CIRCLE( '', #394, 9.86500000000000 );
#330 = VERTEX_POINT( '', #395 );
#331 = VERTEX_POINT( '', #396 );
#332 = CIRCLE( '', #397, 8.00000000000000 );
#333 = CIRCLE( '', #398, 8.00000000000000 );
#334 = VERTEX_POINT( '', #399 );
#335 = CIRCLE( '', #400, 11.2000000000000 );
#336 = VERTEX_POINT( '', #401 );
#337 = VERTEX_POINT( '', #402 );
#338 = CIRCLE( '', #403, 11.5000000000000 );
#339 = CIRCLE( '', #404, 11.5000000000000 );
#340 = ELLIPSE( '', #405, 16.2634559673000, 11.5000000000000 );
#341 = ELLIPSE( '', #406, 16.2634559673000, 11.5000000000000 );
#342 = VERTEX_POINT( '', #407 );
#343 = CIRCLE( '', #408, 11.5000000000000 );
#344 = VERTEX_POINT( '', #409 );
#345 = CIRCLE( '', #410, 10.2000000000000 );
#346 = VERTEX_POINT( '', #411 );
#347 = CIRCLE( '', #412, 9.20000000000000 );
#348 = VERTEX_POINT( '', #413 );
#349 = CIRCLE( '', #414, 10.2000000000000 );
#350 = ELLIPSE( '', #415, 11.3137084990000, 8.00000000000000 );
#351 = VERTEX_POINT( '', #416 );
#352 = CIRCLE( '', #417, 8.00000000000000 );
#353 = CARTESIAN_POINT( '', ( 0.000000000000000, -6.00000000000000, 12.7500000000000 ) );
#354 = AXIS2_PLACEMENT_3D( '', #418, #419, #420 );
#355 = CARTESIAN_POINT( '', ( 12.3009146001425, -4.50000000000000, 3.35410196624967 ) );
#356 = CARTESIAN_POINT( '', ( 12.3009146001425, -4.50000000000000, -3.35410196624967 ) );
#357 = CARTESIAN_POINT( '', ( 12.3009146001425, -4.50000000000000, 3.35410196624967 ) );
#358 = CARTESIAN_POINT( '', ( 12.4468619523700, -4.66320781053333, 2.81885111999289 ) );
#359 = CARTESIAN_POINT( '', ( 12.5586581394341, -4.78754806870542, 2.27182073811244 ) );
#360 = CARTESIAN_POINT( '', ( 12.6723724288663, -4.91388889734482, 1.43287053024063 ) );
#361 = CARTESIAN_POINT( '', ( 12.7012525127811, -4.94593387979278, 1.15014192185163 ) );
#362 = CARTESIAN_POINT( '', ( 12.7401046393101, -4.98903186555471, 0.578252205579216 ) );
#363 = CARTESIAN_POINT( '', ( 12.7499825514911, -4.99998065491403, 0.287943776424874 ) );
#364 = CARTESIAN_POINT( '', ( 12.7500348266020, -5.00003861210224, -0.573566602297825 ) );
#365 = CARTESIAN_POINT( '', ( 12.7114449625751, -4.95729762572196, -1.14092943491260 ) );
#366 = CARTESIAN_POINT( '', ( 12.5604409563569, -4.78953111807252, -2.26227230763593 ) );
#367 = CARTESIAN_POINT( '', ( 12.4469182414552, -4.66327075664516, -2.81864468404163 ) );
#368 = CARTESIAN_POINT( '', ( 12.3009146001425, -4.50000000000000, -3.35410196624967 ) );
#369 = AXIS2_PLACEMENT_3D( '', #421, #422, #423 );
#370 = CARTESIAN_POINT( '', ( 9.75000000000001, -3.25000000000000, 6.09815545882523 ) );
#371 = CARTESIAN_POINT( '', ( 9.75000000000000, -3.25000000000000, 6.09815545882523 ) );
#372 = CARTESIAN_POINT( '', ( 10.2518556809028, -3.48026319476717, 5.73000050375093 ) );
#373 = CARTESIAN_POINT( '', ( 10.7207266439763, -3.70556926501613, 5.32423367854696 ) );
#374 = CARTESIAN_POINT( '', ( 11.5804340594989, -4.13000985886539, 4.41633317212824 ) );
#375 = CARTESIAN_POINT( '', ( 11.9742178789353, -4.33079290662243, 3.90902785874854 ) );
#376 = CARTESIAN_POINT( '', ( 12.3009146001425, -4.50000000000000, 3.35410196624967 ) );
#377 = CARTESIAN_POINT( '', ( 9.75000000000001, -3.25000000000000, -6.09815545882523 ) );
#378 = AXIS2_PLACEMENT_3D( '', #424, #425, #426 );
#379 = CARTESIAN_POINT( '', ( 12.3009146001425, -4.50000000000000, -3.35410196624967 ) );
#380 = CARTESIAN_POINT( '', ( 11.9755489739920, -4.33148232500630, -3.90676686540399 ) );
#381 = CARTESIAN_POINT( '', ( 11.5909515405564, -4.13530090582949, -4.40379819499264 ) );
#382 = CARTESIAN_POINT( '', ( 10.9453638607183, -3.81642588348345, -5.08769328532413 ) );
#383 = CARTESIAN_POINT( '', ( 10.7176661853872, -3.70554375021737, -5.30586015476326 ) );
#384 = CARTESIAN_POINT( '', ( 10.2459979045006, -3.48016016000226, -5.71853813489154 ) );
#385 = CARTESIAN_POINT( '', ( 10.0018436051554, -3.36555177177720, -5.91340618792935 ) );
#386 = CARTESIAN_POINT( '', ( 9.75000000000000, -3.25000000000000, -6.09815545882523 ) );
#387 = CARTESIAN_POINT( '', ( 12.5000000000000, 6.50000000000000, -9.86500000000000 ) );
#388 = AXIS2_PLACEMENT_3D( '', #427, #428, #429 );
#389 = CARTESIAN_POINT( '', ( 12.5000000000000, 6.50000000000000, -8.00000000000000 ) );
#390 = AXIS2_PLACEMENT_3D( '', #430, #431, #432 );
#391 = CARTESIAN_POINT( '', ( 22.5000000000000, 6.50000000000000, -10.5300000000000 ) );
#392 = AXIS2_PLACEMENT_3D( '', #433, #434, #435 );
#393 = CARTESIAN_POINT( '', ( 21.8350000000000, 6.50000000000000, -9.86500000000000 ) );
#394 = AXIS2_PLACEMENT_3D( '', #436, #437, #438 );
#395 = CARTESIAN_POINT( '', ( 0.000000000000000, 6.50000000000000, -8.00000000000000 ) );
#396 = CARTESIAN_POINT( '', ( 0.000000000000000, 6.50000000000000, 8.00000000000000 ) );
#397 = AXIS2_PLACEMENT_3D( '', #439, #440, #441 );
#398 = AXIS2_PLACEMENT_3D( '', #442, #443, #444 );
#399 = CARTESIAN_POINT( '', ( 0.000000000000000, -6.00000000000000, 11.2000000000000 ) );
#400 = AXIS2_PLACEMENT_3D( '', #445, #446, #447 );
#401 = CARTESIAN_POINT( '', ( 0.000000000000000, 6.50000000000000, 11.5000000000000 ) );
#402 = CARTESIAN_POINT( '', ( 9.62964972193618E-32, 6.50000000000000, -11.5000000000000 ) );
#403 = AXIS2_PLACEMENT_3D( '', #448, #449, #450 );
#404 = AXIS2_PLACEMENT_3D( '', #451, #452, #453 );
#405 = AXIS2_PLACEMENT_3D( '', #454, #455, #456 );
#406 = AXIS2_PLACEMENT_3D( '', #457, #458, #459 );
#407 = CARTESIAN_POINT( '', ( 22.5000000000000, 6.50000000000000, -11.5000000000000 ) );
#408 = AXIS2_PLACEMENT_3D( '', #460, #461, #462 );
#409 = CARTESIAN_POINT( '', ( 0.000000000000000, -17.0000000000000, 10.2000000000000 ) );
#410 = AXIS2_PLACEMENT_3D( '', #463, #464, #465 );
#411 = CARTESIAN_POINT( '', ( 0.000000000000000, -18.0000000000000, 9.20000000000000 ) );
#412 = AXIS2_PLACEMENT_3D( '', #466, #467, #468 );
#413 = CARTESIAN_POINT( '', ( 0.000000000000000, -7.00000000000000, 10.2000000000000 ) );
#414 = AXIS2_PLACEMENT_3D( '', #469, #470, #471 );
#415 = AXIS2_PLACEMENT_3D( '', #472, #473, #474 );
#416 = CARTESIAN_POINT( '', ( 8.00000000000000, -18.0000000000000, 0.000000000000000 ) );
#417 = AXIS2_PLACEMENT_3D( '', #475, #476, #477 );
#418 = CARTESIAN_POINT( '', ( 0.000000000000000, -6.00000000000000, 0.000000000000000 ) );
#419 = DIRECTION( '', ( -0.000000000000000, 1.00000000000000, 0.000000000000000 ) );
#420 = DIRECTION( '', ( 0.000000000000000, 0.000000000000000, 1.00000000000000 ) );
#421 = CARTESIAN_POINT( '', ( 0.000000000000000, -4.50000000000000, 0.000000000000000 ) );
#422 = DIRECTION( '', ( -0.000000000000000, 1.00000000000000, 0.000000000000000 ) );
#423 = DIRECTION( '', ( 0.000000000000000, 0.000000000000000, 1.00000000000000 ) );
#424 = CARTESIAN_POINT( '', ( 0.000000000000000, -3.25000000000000, 0.000000000000000 ) );
#425 = DIRECTION( '', ( -0.000000000000000, 1.00000000000000, 0.000000000000000 ) );
#426 = DIRECTION( '', ( 0.000000000000000, 0.000000000000000, 1.00000000000000 ) );
#427 = CARTESIAN_POINT( '', ( 12.5000000000000, 6.50000000000000, 0.000000000000000 ) );
#428 = DIRECTION( '', ( 1.00000000000000, 0.000000000000000, -0.000000000000000 ) );
#429 = DIRECTION( '', ( -0.000000000000000, 0.000000000000000, -1.00000000000000 ) );
#430 = CARTESIAN_POINT( '', ( 12.5000000000000, 6.50000000000000, 0.000000000000000 ) );
#431 = DIRECTION( '', ( 1.00000000000000, 0.000000000000000, -0.000000000000000 ) );
#432 = DIRECTION( '', ( -0.000000000000000, 0.000000000000000, -1.00000000000000 ) );
#433 = CARTESIAN_POINT( '', ( 22.5000000000000, 6.50000000000000, 0.000000000000000 ) );
#434 = DIRECTION( '', ( 1.00000000000000, 0.000000000000000, -0.000000000000000 ) );
#435 = DIRECTION( '', ( -0.000000000000000, 0.000000000000000, -1.00000000000000 ) );
#436 = CARTESIAN_POINT( '', ( 21.8350000000000, 6.50000000000000, 0.000000000000000 ) );
#437 = DIRECTION( '', ( 1.00000000000000, 0.000000000000000, -0.000000000000000 ) );
#438 = DIRECTION( '', ( -0.000000000000000, 0.000000000000000, -1.00000000000000 ) );
#439 = CARTESIAN_POINT( '', ( 0.000000000000000, 6.50000000000000, 0.000000000000000 ) );
#440 = DIRECTION( '', ( 1.00000000000000, 0.000000000000000, 0.000000000000000 ) );
#441 = DIRECTION( '', ( 0.000000000000000, 0.000000000000000, -1.00000000000000 ) );
#442 = CARTESIAN_POINT( '', ( 0.000000000000000, 6.50000000000000, 0.000000000000000 ) );
#443 = DIRECTION( '', ( -0.000000000000000, 1.00000000000000, 0.000000000000000 ) );
#444 = DIRECTION( '', ( 1.00000000000000, 0.000000000000000, 0.000000000000000 ) );
#445 = CARTESIAN_POINT( '', ( 0.000000000000000, -6.00000000000000, 0.000000000000000 ) );
#446 = DIRECTION( '', ( -0.000000000000000, 1.00000000000000, 0.000000000000000 ) );
#447 = DIRECTION( '', ( 0.000000000000000, 0.000000000000000, 1.00000000000000 ) );
#448 = CARTESIAN_POINT( '', ( 0.000000000000000, 6.50000000000000, 0.000000000000000 ) );
#449 = DIRECTION( '', ( 1.00000000000000, 0.000000000000000, 0.000000000000000 ) );
#450 = DIRECTION( '', ( 0.000000000000000, 0.000000000000000, -1.00000000000000 ) );
#451 = CARTESIAN_POINT( '', ( 1.13489464739460E-15, 6.50000000000000, 0.000000000000000 ) );
#452 = DIRECTION( '', ( -9.86864910777917E-17, 1.00000000000000, 0.000000000000000 ) );
#453 = DIRECTION( '', ( -1.00000000000000, -9.86864910777917E-17, 0.000000000000000 ) );
#454 = CARTESIAN_POINT( '', ( 4.03689427565092E-15, 6.50000000000000, 0.000000000000000 ) );
#455 = DIRECTION( '', ( 0.707106781186547, 0.707106781186548, 0.000000000000000 ) );
#456 = DIRECTION( '', ( -0.707106781186548, 0.707106781186547, -0.000000000000000 ) );
#457 = CARTESIAN_POINT( '', ( 4.03689427565092E-15, 6.50000000000000, 0.000000000000000 ) );
#458 = DIRECTION( '', ( 0.707106781186547, 0.707106781186548, 0.000000000000000 ) );
#459 = DIRECTION( '', ( -0.707106781186548, 0.707106781186547, -0.000000000000000 ) );
#460 = CARTESIAN_POINT( '', ( 22.5000000000000, 6.50000000000000, 0.000000000000000 ) );
#461 = DIRECTION( '', ( 1.00000000000000, 0.000000000000000, 0.000000000000000 ) );
#462 = DIRECTION( '', ( 0.000000000000000, 0.000000000000000, -1.00000000000000 ) );
#463 = CARTESIAN_POINT( '', ( 0.000000000000000, -17.0000000000000, 0.000000000000000 ) );
#464 = DIRECTION( '', ( -0.000000000000000, 1.00000000000000, 0.000000000000000 ) );
#465 = DIRECTION( '', ( 0.000000000000000, 0.000000000000000, 1.00000000000000 ) );
#466 = CARTESIAN_POINT( '', ( 0.000000000000000, -18.0000000000000, 0.000000000000000 ) );
#467 = DIRECTION( '', ( -0.000000000000000, 1.00000000000000, 0.000000000000000 ) );
#468 = DIRECTION( '', ( 0.000000000000000, 0.000000000000000, 1.00000000000000 ) );
#469 = CARTESIAN_POINT( '', ( 0.000000000000000, -7.00000000000000, 0.000000000000000 ) );
#470 = DIRECTION( '', ( -0.000000000000000, 1.00000000000000, 0.000000000000000 ) );
#471 = DIRECTION( '', ( 0.000000000000000, 0.000000000000000, 1.00000000000000 ) );
#472 = CARTESIAN_POINT( '', ( 0.000000000000000, 6.50000000000000, 0.000000000000000 ) );
#473 = DIRECTION( '', ( -0.707106781186548, -0.707106781186548, -0.000000000000000 ) );
#474 = DIRECTION( '', ( -0.707106781186548, 0.707106781186548, 0.000000000000000 ) );
#475 = CARTESIAN_POINT( '', ( 0.000000000000000, -18.0000000000000, 0.000000000000000 ) );
#476 = DIRECTION( '', ( -0.000000000000000, 1.00000000000000, 0.000000000000000 ) );
#477 = DIRECTION( '', ( 1.00000000000000, 0.000000000000000, 0.000000000000000 ) );
ENDSEC;
END-ISO-10303-21;
