ISO-10303-21;
HEADER;
FILE_DESCRIPTION( ( 'STEP AP203' ), '1' );
FILE_NAME( 'p:/temp/worker_110/temp/exporttempdir_788_129_LZfyD/format_0/FLEXA WIC-M 0512.300.040.stp', '2020-03-10T14:36:59', ( '' ), ( '' ), ' ', 'PARTsolutions', ' ' );
FILE_SCHEMA( ( 'CONFIG_CONTROL_DESIGN' ) );
ENDSEC;
DATA;
#1 = DESIGN_CONTEXT( '', #27, 'design' );
#2 = APPLICATION_PROTOCOL_DEFINITION( 'international standard', 'config_control_design', 1994, #27 );
#3 = PRODUCT_CATEGORY_RELATIONSHIP( 'NONE', 'NONE', #28, #29 );
#4 = DATE_AND_TIME( #30, #31 );
#5 = DATE_TIME_ROLE( 'creation_date' );
#6 = DATE_TIME_ROLE( 'classification_date' );
#7 = PERSON_AND_ORGANIZATION_ROLE( 'creator' );
#8 = PERSON_AND_ORGANIZATION_ROLE( 'design_supplier' );
#9 = PERSON_AND_ORGANIZATION_ROLE( 'classification_officer' );
#10 = PERSON_AND_ORGANIZATION_ROLE( 'design_owner' );
#11 = APPROVAL_PERSON_ORGANIZATION( #32, #33, #34 );
#12 = APPROVAL_DATE_TIME( #4, #33 );
#13 = CC_DESIGN_APPROVAL( #33, ( #35, #36, #37 ) );
#14 = CC_DESIGN_DATE_AND_TIME_ASSIGNMENT( #4, #5, ( #37 ) );
#15 = CC_DESIGN_DATE_AND_TIME_ASSIGNMENT( #4, #6, ( #35 ) );
#16 = CC_DESIGN_PERSON_AND_ORGANIZATION_ASSIGNMENT( #32, #10, ( #38 ) );
#17 = CC_DESIGN_PERSON_AND_ORGANIZATION_ASSIGNMENT( #32, #7, ( #37 ) );
#18 = CC_DESIGN_PERSON_AND_ORGANIZATION_ASSIGNMENT( #32, #7, ( #36 ) );
#19 = CC_DESIGN_PERSON_AND_ORGANIZATION_ASSIGNMENT( #32, #8, ( #36 ) );
#20 = CC_DESIGN_SECURITY_CLASSIFICATION( #35, ( #36 ) );
#21 = CC_DESIGN_PERSON_AND_ORGANIZATION_ASSIGNMENT( #32, #9, ( #35 ) );
#22 = SHAPE_DEFINITION_REPRESENTATION( #39, #40 );
#23 =  ( GEOMETRIC_REPRESENTATION_CONTEXT( 3 )GLOBAL_UNCERTAINTY_ASSIGNED_CONTEXT( ( #43 ) )GLOBAL_UNIT_ASSIGNED_CONTEXT( ( #45, #46, #47 ) )REPRESENTATION_CONTEXT( 'NONE', 'WORKSPACE' ) );
#27 = APPLICATION_CONTEXT( 'configuration controlled 3D designs of mechanical parts and assemblies' );
#28 = PRODUCT_CATEGORY( 'part', 'NONE' );
#29 = PRODUCT_RELATED_PRODUCT_CATEGORY( 'detail', ' ', ( #38 ) );
#30 = CALENDAR_DATE( 2020, 10, 2 );
#31 = LOCAL_TIME( 15, 36, 59.0000000000000, #49 );
#32 = PERSON_AND_ORGANIZATION( #50, #51 );
#33 = APPROVAL( #52, 'SOLID MODEL' );
#34 = APPROVAL_ROLE( 'APPROVED' );
#35 = SECURITY_CLASSIFICATION( '', '', #53 );
#36 = PRODUCT_DEFINITION_FORMATION_WITH_SPECIFIED_SOURCE( ' ', 'NONE', #38, .NOT_KNOWN. );
#37 = PRODUCT_DEFINITION( 'NONE', 'NONE', #36, #1 );
#38 = PRODUCT( '_FLEXA WIC-M 0512.300.040', '_FLEXA WIC-M 0512.300.040', 'PART-_FLEXA WIC-M 0512.300.040-DESC', ( #54 ) );
#39 = PRODUCT_DEFINITION_SHAPE( 'NONE', 'NONE', #37 );
#40 = ADVANCED_BREP_SHAPE_REPRESENTATION( '_FLEXA WIC-M 0512.300.040', ( #55, #56 ), #23 );
#43 = UNCERTAINTY_MEASURE_WITH_UNIT( LENGTH_MEASURE( 0.00100000000000000 ), #45, '', '' );
#45 =  ( CONVERSION_BASED_UNIT( 'MILLIMETRE', #59 )LENGTH_UNIT(  )NAMED_UNIT( #62 ) );
#46 =  ( NAMED_UNIT( #64 )PLANE_ANGLE_UNIT(  )SI_UNIT( $, .RADIAN. ) );
#47 =  ( NAMED_UNIT( #64 )SI_UNIT( $, .STERADIAN. )SOLID_ANGLE_UNIT(  ) );
#49 = COORDINATED_UNIVERSAL_TIME_OFFSET( 1, 0, .AHEAD. );
#50 = PERSON( '', 'UNSPECIFIED', $, $, $, $ );
#51 = ORGANIZATION( 'UNSPECIFIED', 'UNSPECIFIED', 'UNSPECIFIED' );
#52 = APPROVAL_STATUS( 'approved' );
#53 = SECURITY_CLASSIFICATION_LEVEL( 'unclassified' );
#54 = MECHANICAL_CONTEXT( '', #27, 'mechanical' );
#55 = MANIFOLD_SOLID_BREP( '_FLEXA WIC-M 0512.300.040', #70 );
#56 = AXIS2_PLACEMENT_3D( '', #71, #72, #73 );
#59 = LENGTH_MEASURE_WITH_UNIT( LENGTH_MEASURE( 1.00000000000000 ), #74 );
#62 = DIMENSIONAL_EXPONENTS( 1.00000000000000, 0.000000000000000, 0.000000000000000, 0.000000000000000, 0.000000000000000, 0.000000000000000, 0.000000000000000 );
#64 = DIMENSIONAL_EXPONENTS( 0.000000000000000, 0.000000000000000, 0.000000000000000, 0.000000000000000, 0.000000000000000, 0.000000000000000, 0.000000000000000 );
#70 = CLOSED_SHELL( '', ( #75, #76, #77, #78, #79, #80, #81, #82, #83, #84, #85, #86, #87 ) );
#71 = CARTESIAN_POINT( '', ( 0.000000000000000, 0.000000000000000, 0.000000000000000 ) );
#72 = DIRECTION( '', ( 0.000000000000000, 0.000000000000000, 1.00000000000000 ) );
#73 = DIRECTION( '', ( 1.00000000000000, 0.000000000000000, 0.000000000000000 ) );
#74 =  ( LENGTH_UNIT(  )NAMED_UNIT( #62 )SI_UNIT( .MILLI., .METRE. ) );
#75 = ADVANCED_FACE( '', ( #89, #90, #91 ), #92, .T. );
#76 = ADVANCED_FACE( '', ( #93, #94 ), #95, .T. );
#77 = ADVANCED_FACE( '', ( #96, #97 ), #98, .F. );
#78 = ADVANCED_FACE( '', ( #99, #100 ), #101, .F. );
#79 = ADVANCED_FACE( '', ( #102, #103 ), #104, .F. );
#80 = ADVANCED_FACE( '', ( #105, #106 ), #107, .T. );
#81 = ADVANCED_FACE( '', ( #108, #109 ), #110, .F. );
#82 = ADVANCED_FACE( '', ( #111, #112 ), #113, .T. );
#83 = ADVANCED_FACE( '', ( #114, #115 ), #116, .T. );
#84 = ADVANCED_FACE( '', ( #117, #118 ), #119, .F. );
#85 = ADVANCED_FACE( '', ( #120, #121 ), #122, .F. );
#86 = ADVANCED_FACE( '', ( #123, #124 ), #125, .T. );
#87 = ADVANCED_FACE( '', ( #126, #127 ), #128, .T. );
#89 = FACE_BOUND( '', #129, .T. );
#90 = FACE_OUTER_BOUND( '', #130, .T. );
#91 = FACE_OUTER_BOUND( '', #131, .T. );
#92 = TOROIDAL_SURFACE( '', #132, 20.3300000000000, 1.25000000000000 );
#93 = FACE_OUTER_BOUND( '', #133, .T. );
#94 = FACE_OUTER_BOUND( '', #134, .T. );
#95 = CYLINDRICAL_SURFACE( '', #135, 20.0000000000000 );
#96 = FACE_BOUND( '', #136, .T. );
#97 = FACE_OUTER_BOUND( '', #137, .T. );
#98 = PLANE( '', #138 );
#99 = FACE_OUTER_BOUND( '', #139, .T. );
#100 = FACE_OUTER_BOUND( '', #140, .T. );
#101 = CYLINDRICAL_SURFACE( '', #141, 19.1880000000000 );
#102 = FACE_OUTER_BOUND( '', #142, .T. );
#103 = FACE_OUTER_BOUND( '', #143, .T. );
#104 = CYLINDRICAL_SURFACE( '', #144, 17.5000000000000 );
#105 = FACE_OUTER_BOUND( '', #145, .T. );
#106 = FACE_OUTER_BOUND( '', #146, .T. );
#107 = CYLINDRICAL_SURFACE( '', #147, 23.0000000000000 );
#108 = FACE_OUTER_BOUND( '', #148, .T. );
#109 = FACE_OUTER_BOUND( '', #149, .T. );
#110 = CYLINDRICAL_SURFACE( '', #150, 17.5000000000000 );
#111 = FACE_BOUND( '', #151, .T. );
#112 = FACE_OUTER_BOUND( '', #152, .T. );
#113 = PLANE( '', #153 );
#114 = FACE_OUTER_BOUND( '', #154, .T. );
#115 = FACE_BOUND( '', #155, .T. );
#116 = PLANE( '', #156 );
#117 = FACE_OUTER_BOUND( '', #157, .T. );
#118 = FACE_BOUND( '', #158, .T. );
#119 = CONICAL_SURFACE( '', #159, 19.0800000000000, 0.785398163400000 );
#120 = FACE_OUTER_BOUND( '', #160, .T. );
#121 = FACE_BOUND( '', #161, .T. );
#122 = PLANE( '', #162 );
#123 = FACE_OUTER_BOUND( '', #163, .T. );
#124 = FACE_BOUND( '', #164, .T. );
#125 = CONICAL_SURFACE( '', #165, 19.0000000000000, 0.785398163400000 );
#126 = FACE_OUTER_BOUND( '', #166, .T. );
#127 = FACE_OUTER_BOUND( '', #167, .T. );
#128 = CYLINDRICAL_SURFACE( '', #168, 23.0000000000000 );
#129 = VERTEX_LOOP( '', #169 );
#130 = EDGE_LOOP( '', ( #170 ) );
#131 = EDGE_LOOP( '', ( #171 ) );
#132 = AXIS2_PLACEMENT_3D( '', #172, #173, #174 );
#133 = EDGE_LOOP( '', ( #175 ) );
#134 = EDGE_LOOP( '', ( #176 ) );
#135 = AXIS2_PLACEMENT_3D( '', #177, #178, #179 );
#136 = EDGE_LOOP( '', ( #180 ) );
#137 = EDGE_LOOP( '', ( #181 ) );
#138 = AXIS2_PLACEMENT_3D( '', #182, #183, #184 );
#139 = EDGE_LOOP( '', ( #185 ) );
#140 = EDGE_LOOP( '', ( #186 ) );
#141 = AXIS2_PLACEMENT_3D( '', #187, #188, #189 );
#142 = EDGE_LOOP( '', ( #190 ) );
#143 = EDGE_LOOP( '', ( #191 ) );
#144 = AXIS2_PLACEMENT_3D( '', #192, #193, #194 );
#145 = EDGE_LOOP( '', ( #195 ) );
#146 = EDGE_LOOP( '', ( #196 ) );
#147 = AXIS2_PLACEMENT_3D( '', #197, #198, #199 );
#148 = EDGE_LOOP( '', ( #200 ) );
#149 = EDGE_LOOP( '', ( #201 ) );
#150 = AXIS2_PLACEMENT_3D( '', #202, #203, #204 );
#151 = EDGE_LOOP( '', ( #205 ) );
#152 = EDGE_LOOP( '', ( #206 ) );
#153 = AXIS2_PLACEMENT_3D( '', #207, #208, #209 );
#154 = EDGE_LOOP( '', ( #210 ) );
#155 = EDGE_LOOP( '', ( #211 ) );
#156 = AXIS2_PLACEMENT_3D( '', #212, #213, #214 );
#157 = EDGE_LOOP( '', ( #215 ) );
#158 = EDGE_LOOP( '', ( #216 ) );
#159 = AXIS2_PLACEMENT_3D( '', #217, #218, #219 );
#160 = EDGE_LOOP( '', ( #220 ) );
#161 = EDGE_LOOP( '', ( #221 ) );
#162 = AXIS2_PLACEMENT_3D( '', #222, #223, #224 );
#163 = EDGE_LOOP( '', ( #225 ) );
#164 = EDGE_LOOP( '', ( #226 ) );
#165 = AXIS2_PLACEMENT_3D( '', #227, #228, #229 );
#166 = EDGE_LOOP( '', ( #230 ) );
#167 = EDGE_LOOP( '', ( #231 ) );
#168 = AXIS2_PLACEMENT_3D( '', #232, #233, #234 );
#169 = VERTEX_POINT( '', #235 );
#170 = ORIENTED_EDGE( '', *, *, #236, .F. );
#171 = ORIENTED_EDGE( '', *, *, #237, .F. );
#172 = CARTESIAN_POINT( '', ( 0.000000000000000, -26.0000000000000, 0.000000000000000 ) );
#173 = DIRECTION( '', ( -0.000000000000000, 1.00000000000000, 0.000000000000000 ) );
#174 = DIRECTION( '', ( 0.000000000000000, 0.000000000000000, 1.00000000000000 ) );
#175 = ORIENTED_EDGE( '', *, *, #236, .T. );
#176 = ORIENTED_EDGE( '', *, *, #238, .T. );
#177 = CARTESIAN_POINT( '', ( 0.000000000000000, 50.0000000000000, 0.000000000000000 ) );
#178 = DIRECTION( '', ( 0.000000000000000, -1.00000000000000, -0.000000000000000 ) );
#179 = DIRECTION( '', ( 0.000000000000000, 0.000000000000000, 1.00000000000000 ) );
#180 = ORIENTED_EDGE( '', *, *, #239, .T. );
#181 = ORIENTED_EDGE( '', *, *, #240, .F. );
#182 = CARTESIAN_POINT( '', ( 0.000000000000000, -32.7500000000000, 0.000000000000000 ) );
#183 = DIRECTION( '', ( 0.000000000000000, 1.00000000000000, 0.000000000000000 ) );
#184 = DIRECTION( '', ( 0.000000000000000, -0.000000000000000, 1.00000000000000 ) );
#185 = ORIENTED_EDGE( '', *, *, #241, .T. );
#186 = ORIENTED_EDGE( '', *, *, #242, .F. );
#187 = CARTESIAN_POINT( '', ( 43.0000000000000, 9.75000000000000, 0.000000000000000 ) );
#188 = DIRECTION( '', ( -1.00000000000000, -0.000000000000000, 0.000000000000000 ) );
#189 = DIRECTION( '', ( -0.000000000000000, 0.000000000000000, -1.00000000000000 ) );
#190 = ORIENTED_EDGE( '', *, *, #239, .F. );
#191 = ORIENTED_EDGE( '', *, *, #243, .F. );
#192 = CARTESIAN_POINT( '', ( 0.000000000000000, 32.7500000000000, 0.000000000000000 ) );
#193 = DIRECTION( '', ( -0.000000000000000, 1.00000000000000, 0.000000000000000 ) );
#194 = DIRECTION( '', ( 0.000000000000000, 0.000000000000000, -1.00000000000000 ) );
#195 = ORIENTED_EDGE( '', *, *, #244, .T. );
#196 = ORIENTED_EDGE( '', *, *, #245, .F. );
#197 = CARTESIAN_POINT( '', ( -23.0000000000000, 9.75000000000000, 0.000000000000000 ) );
#198 = DIRECTION( '', ( -1.00000000000000, -0.000000000000000, -0.000000000000000 ) );
#199 = DIRECTION( '', ( 0.000000000000000, 0.000000000000000, -1.00000000000000 ) );
#200 = ORIENTED_EDGE( '', *, *, #243, .T. );
#201 = ORIENTED_EDGE( '', *, *, #246, .F. );
#202 = CARTESIAN_POINT( '', ( -23.0000000000000, 9.75000000000000, 0.000000000000000 ) );
#203 = DIRECTION( '', ( -1.00000000000000, -0.000000000000000, -0.000000000000000 ) );
#204 = DIRECTION( '', ( 0.000000000000000, 0.000000000000000, -1.00000000000000 ) );
#205 = ORIENTED_EDGE( '', *, *, #247, .F. );
#206 = ORIENTED_EDGE( '', *, *, #245, .T. );
#207 = CARTESIAN_POINT( '', ( 43.0000000000000, 9.75000000000000, 0.000000000000000 ) );
#208 = DIRECTION( '', ( 1.00000000000000, 0.000000000000000, 0.000000000000000 ) );
#209 = DIRECTION( '', ( 0.000000000000000, 0.000000000000000, -1.00000000000000 ) );
#210 = ORIENTED_EDGE( '', *, *, #242, .T. );
#211 = ORIENTED_EDGE( '', *, *, #246, .T. );
#212 = CARTESIAN_POINT( '', ( 24.0000000000000, 9.75000000000000, 0.000000000000000 ) );
#213 = DIRECTION( '', ( 1.00000000000000, 0.000000000000000, -0.000000000000000 ) );
#214 = DIRECTION( '', ( -0.000000000000000, 0.000000000000000, -1.00000000000000 ) );
#215 = ORIENTED_EDGE( '', *, *, #247, .T. );
#216 = ORIENTED_EDGE( '', *, *, #241, .F. );
#217 = CARTESIAN_POINT( '', ( 42.0000000000000, 9.75000000000000, 0.000000000000000 ) );
#218 = DIRECTION( '', ( 1.00000000000000, -0.000000000000000, -0.000000000000000 ) );
#219 = DIRECTION( '', ( -0.000000000000000, 0.000000000000000, -1.00000000000000 ) );
#220 = ORIENTED_EDGE( '', *, *, #248, .F. );
#221 = ORIENTED_EDGE( '', *, *, #237, .T. );
#222 = CARTESIAN_POINT( '', ( -20.0000000000000, -24.7500000000000, 0.000000000000000 ) );
#223 = DIRECTION( '', ( -0.000000000000000, 1.00000000000000, 0.000000000000000 ) );
#224 = DIRECTION( '', ( 0.000000000000000, 0.000000000000000, 1.00000000000000 ) );
#225 = ORIENTED_EDGE( '', *, *, #238, .F. );
#226 = ORIENTED_EDGE( '', *, *, #240, .T. );
#227 = CARTESIAN_POINT( '', ( 0.000000000000000, -32.7500000000000, 0.000000000000000 ) );
#228 = DIRECTION( '', ( -0.000000000000000, 1.00000000000000, -0.000000000000000 ) );
#229 = DIRECTION( '', ( 0.000000000000000, 0.000000000000000, 1.00000000000000 ) );
#230 = ORIENTED_EDGE( '', *, *, #248, .T. );
#231 = ORIENTED_EDGE( '', *, *, #244, .F. );
#232 = CARTESIAN_POINT( '', ( 0.000000000000000, 32.7500000000000, 0.000000000000000 ) );
#233 = DIRECTION( '', ( -0.000000000000000, 1.00000000000000, 0.000000000000000 ) );
#234 = DIRECTION( '', ( 0.000000000000000, 0.000000000000000, -1.00000000000000 ) );
#235 = CARTESIAN_POINT( '', ( 0.000000000000000, -26.0000000000000, 21.5800000000000 ) );
#236 = EDGE_CURVE( '', #249, #249, #250, .F. );
#237 = EDGE_CURVE( '', #251, #251, #252, .T. );
#238 = EDGE_CURVE( '', #253, #253, #254, .T. );
#239 = EDGE_CURVE( '', #255, #255, #256, .T. );
#240 = EDGE_CURVE( '', #257, #257, #258, .T. );
#241 = EDGE_CURVE( '', #259, #259, #260, .T. );
#242 = EDGE_CURVE( '', #261, #261, #262, .T. );
#243 = EDGE_CURVE( '', #263, #263, #264, .F. );
#244 = EDGE_CURVE( '', #265, #265, #266, .T. );
#245 = EDGE_CURVE( '', #267, #267, #268, .T. );
#246 = EDGE_CURVE( '', #269, #269, #270, .F. );
#247 = EDGE_CURVE( '', #271, #271, #272, .T. );
#248 = EDGE_CURVE( '', #273, #273, #274, .T. );
#249 = VERTEX_POINT( '', #275 );
#250 = CIRCLE( '', #276, 20.0000000000000 );
#251 = VERTEX_POINT( '', #277 );
#252 = CIRCLE( '', #278, 20.3300000000000 );
#253 = VERTEX_POINT( '', #279 );
#254 = CIRCLE( '', #280, 20.0000000000000 );
#255 = VERTEX_POINT( '', #281 );
#256 = CIRCLE( '', #282, 17.5000000000000 );
#257 = VERTEX_POINT( '', #283 );
#258 = CIRCLE( '', #284, 19.0000000000000 );
#259 = VERTEX_POINT( '', #285 );
#260 = CIRCLE( '', #286, 19.1880000000000 );
#261 = VERTEX_POINT( '', #287 );
#262 = CIRCLE( '', #288, 19.1880000000000 );
#263 = VERTEX_POINT( '', #289 );
#264 = ELLIPSE( '', #290, 24.7487373415000, 17.5000000000000 );
#265 = VERTEX_POINT( '', #291 );
#266 = ELLIPSE( '', #292, 32.5269119346000, 23.0000000000000 );
#267 = VERTEX_POINT( '', #293 );
#268 = CIRCLE( '', #294, 23.0000000000000 );
#269 = VERTEX_POINT( '', #295 );
#270 = CIRCLE( '', #296, 17.5000000000000 );
#271 = VERTEX_POINT( '', #297 );
#272 = CIRCLE( '', #298, 20.0800000000000 );
#273 = VERTEX_POINT( '', #299 );
#274 = CIRCLE( '', #300, 23.0000000000000 );
#275 = CARTESIAN_POINT( '', ( 0.000000000000000, -27.2056533498481, 20.0000000000000 ) );
#276 = AXIS2_PLACEMENT_3D( '', #301, #302, #303 );
#277 = CARTESIAN_POINT( '', ( 0.000000000000000, -24.7500000000000, 20.3300000000000 ) );
#278 = AXIS2_PLACEMENT_3D( '', #304, #305, #306 );
#279 = CARTESIAN_POINT( '', ( 0.000000000000000, -31.7500000000000, 20.0000000000000 ) );
#280 = AXIS2_PLACEMENT_3D( '', #307, #308, #309 );
#281 = CARTESIAN_POINT( '', ( 17.5000000000000, -32.7500000000000, 0.000000000000000 ) );
#282 = AXIS2_PLACEMENT_3D( '', #310, #311, #312 );
#283 = CARTESIAN_POINT( '', ( 0.000000000000000, -32.7500000000000, 19.0000000000000 ) );
#284 = AXIS2_PLACEMENT_3D( '', #313, #314, #315 );
#285 = CARTESIAN_POINT( '', ( 42.1080000000000, 9.75000000000000, -19.1880000000000 ) );
#286 = AXIS2_PLACEMENT_3D( '', #316, #317, #318 );
#287 = CARTESIAN_POINT( '', ( 24.0000000000000, 9.75000000000000, -19.1880000000000 ) );
#288 = AXIS2_PLACEMENT_3D( '', #319, #320, #321 );
#289 = CARTESIAN_POINT( '', ( 17.5000000000000, -7.75000000000000, 0.000000000000000 ) );
#290 = AXIS2_PLACEMENT_3D( '', #322, #323, #324 );
#291 = CARTESIAN_POINT( '', ( 23.0000000000000, -13.2500000000000, 0.000000000000000 ) );
#292 = AXIS2_PLACEMENT_3D( '', #325, #326, #327 );
#293 = CARTESIAN_POINT( '', ( 43.0000000000000, 9.75000000000000, -23.0000000000000 ) );
#294 = AXIS2_PLACEMENT_3D( '', #328, #329, #330 );
#295 = CARTESIAN_POINT( '', ( 24.0000000000000, 9.75000000000000, -17.5000000000000 ) );
#296 = AXIS2_PLACEMENT_3D( '', #331, #332, #333 );
#297 = CARTESIAN_POINT( '', ( 43.0000000000000, 9.75000000000000, -20.0800000000000 ) );
#298 = AXIS2_PLACEMENT_3D( '', #334, #335, #336 );
#299 = CARTESIAN_POINT( '', ( 0.000000000000000, -24.7500000000000, 23.0000000000000 ) );
#300 = AXIS2_PLACEMENT_3D( '', #337, #338, #339 );
#301 = CARTESIAN_POINT( '', ( 0.000000000000000, -27.2056533498481, 0.000000000000000 ) );
#302 = DIRECTION( '', ( -0.000000000000000, 1.00000000000000, 0.000000000000000 ) );
#303 = DIRECTION( '', ( 0.000000000000000, 0.000000000000000, 1.00000000000000 ) );
#304 = CARTESIAN_POINT( '', ( 0.000000000000000, -24.7500000000000, 0.000000000000000 ) );
#305 = DIRECTION( '', ( -0.000000000000000, 1.00000000000000, 0.000000000000000 ) );
#306 = DIRECTION( '', ( 0.000000000000000, 0.000000000000000, 1.00000000000000 ) );
#307 = CARTESIAN_POINT( '', ( 0.000000000000000, -31.7500000000000, 0.000000000000000 ) );
#308 = DIRECTION( '', ( -0.000000000000000, 1.00000000000000, 0.000000000000000 ) );
#309 = DIRECTION( '', ( 0.000000000000000, 0.000000000000000, 1.00000000000000 ) );
#310 = CARTESIAN_POINT( '', ( 0.000000000000000, -32.7500000000000, 0.000000000000000 ) );
#311 = DIRECTION( '', ( -0.000000000000000, 1.00000000000000, 0.000000000000000 ) );
#312 = DIRECTION( '', ( 1.00000000000000, 0.000000000000000, 0.000000000000000 ) );
#313 = CARTESIAN_POINT( '', ( 0.000000000000000, -32.7500000000000, 0.000000000000000 ) );
#314 = DIRECTION( '', ( -0.000000000000000, 1.00000000000000, 0.000000000000000 ) );
#315 = DIRECTION( '', ( 0.000000000000000, 0.000000000000000, 1.00000000000000 ) );
#316 = CARTESIAN_POINT( '', ( 42.1080000000000, 9.75000000000000, 0.000000000000000 ) );
#317 = DIRECTION( '', ( 1.00000000000000, 0.000000000000000, -0.000000000000000 ) );
#318 = DIRECTION( '', ( -0.000000000000000, 0.000000000000000, -1.00000000000000 ) );
#319 = CARTESIAN_POINT( '', ( 24.0000000000000, 9.75000000000000, 0.000000000000000 ) );
#320 = DIRECTION( '', ( 1.00000000000000, 0.000000000000000, -0.000000000000000 ) );
#321 = DIRECTION( '', ( -0.000000000000000, 0.000000000000000, -1.00000000000000 ) );
#322 = CARTESIAN_POINT( '', ( 0.000000000000000, 9.75000000000000, 0.000000000000000 ) );
#323 = DIRECTION( '', ( 0.707106781186548, 0.707106781186548, 0.000000000000000 ) );
#324 = DIRECTION( '', ( 0.707106781186548, -0.707106781186548, 0.000000000000000 ) );
#325 = CARTESIAN_POINT( '', ( 0.000000000000000, 9.75000000000000, 0.000000000000000 ) );
#326 = DIRECTION( '', ( 0.707106781186548, 0.707106781186548, 0.000000000000000 ) );
#327 = DIRECTION( '', ( 0.707106781186547, -0.707106781186547, 0.000000000000000 ) );
#328 = CARTESIAN_POINT( '', ( 43.0000000000000, 9.75000000000000, 0.000000000000000 ) );
#329 = DIRECTION( '', ( 1.00000000000000, 0.000000000000000, 0.000000000000000 ) );
#330 = DIRECTION( '', ( 0.000000000000000, 0.000000000000000, -1.00000000000000 ) );
#331 = CARTESIAN_POINT( '', ( 24.0000000000000, 9.75000000000000, 0.000000000000000 ) );
#332 = DIRECTION( '', ( 1.00000000000000, 0.000000000000000, -0.000000000000000 ) );
#333 = DIRECTION( '', ( -0.000000000000000, 0.000000000000000, -1.00000000000000 ) );
#334 = CARTESIAN_POINT( '', ( 43.0000000000000, 9.75000000000000, 0.000000000000000 ) );
#335 = DIRECTION( '', ( 1.00000000000000, 0.000000000000000, -0.000000000000000 ) );
#336 = DIRECTION( '', ( -0.000000000000000, 0.000000000000000, -1.00000000000000 ) );
#337 = CARTESIAN_POINT( '', ( 0.000000000000000, -24.7500000000000, 0.000000000000000 ) );
#338 = DIRECTION( '', ( -0.000000000000000, 1.00000000000000, 0.000000000000000 ) );
#339 = DIRECTION( '', ( 0.000000000000000, 0.000000000000000, 1.00000000000000 ) );
ENDSEC;
END-ISO-10303-21;
