ISO-10303-21;
HEADER;
FILE_DESCRIPTION( ( 'STEP AP203' ), '1' );
FILE_NAME( 'p:/temp/worker_155/temp/exporttempdir_6324_127_kw0PR/format_0/FLEXA AK 5030.014.209.stp', '2020-03-27T08:20:10', ( 'License CC BY-ND 4.0' ), ( 'CADENAS' ), ' ', 'PARTsolutions', ' ' );
FILE_SCHEMA( ( 'CONFIG_CONTROL_DESIGN' ) );
ENDSEC;
DATA;
#1 = DESIGN_CONTEXT( '', #27, 'design' );
#2 = APPLICATION_PROTOCOL_DEFINITION( 'international standard', 'config_control_design', 1994, #27 );
#3 = PRODUCT_CATEGORY_RELATIONSHIP( 'NONE', 'NONE', #28, #29 );
#4 = DATE_AND_TIME( #30, #31 );
#5 = DATE_TIME_ROLE( 'creation_date' );
#6 = DATE_TIME_ROLE( 'classification_date' );
#7 = PERSON_AND_ORGANIZATION_ROLE( 'creator' );
#8 = PERSON_AND_ORGANIZATION_ROLE( 'design_supplier' );
#9 = PERSON_AND_ORGANIZATION_ROLE( 'classification_officer' );
#10 = PERSON_AND_ORGANIZATION_ROLE( 'design_owner' );
#11 = APPROVAL_PERSON_ORGANIZATION( #32, #33, #34 );
#12 = APPROVAL_DATE_TIME( #4, #33 );
#13 = CC_DESIGN_APPROVAL( #33, ( #35, #36, #37 ) );
#14 = CC_DESIGN_DATE_AND_TIME_ASSIGNMENT( #4, #5, ( #37 ) );
#15 = CC_DESIGN_DATE_AND_TIME_ASSIGNMENT( #4, #6, ( #35 ) );
#16 = CC_DESIGN_PERSON_AND_ORGANIZATION_ASSIGNMENT( #32, #10, ( #38 ) );
#17 = CC_DESIGN_PERSON_AND_ORGANIZATION_ASSIGNMENT( #32, #7, ( #37 ) );
#18 = CC_DESIGN_PERSON_AND_ORGANIZATION_ASSIGNMENT( #32, #7, ( #36 ) );
#19 = CC_DESIGN_PERSON_AND_ORGANIZATION_ASSIGNMENT( #32, #8, ( #36 ) );
#20 = CC_DESIGN_SECURITY_CLASSIFICATION( #35, ( #36 ) );
#21 = CC_DESIGN_PERSON_AND_ORGANIZATION_ASSIGNMENT( #32, #9, ( #35 ) );
#22 = SHAPE_DEFINITION_REPRESENTATION( #39, #40 );
#23 =  ( GEOMETRIC_REPRESENTATION_CONTEXT( 3 )GLOBAL_UNCERTAINTY_ASSIGNED_CONTEXT( ( #43 ) )GLOBAL_UNIT_ASSIGNED_CONTEXT( ( #45, #46, #47 ) )REPRESENTATION_CONTEXT( 'NONE', 'WORKSPACE' ) );
#27 = APPLICATION_CONTEXT( 'configuration controlled 3D designs of mechanical parts and assemblies' );
#28 = PRODUCT_CATEGORY( 'part', 'NONE' );
#29 = PRODUCT_RELATED_PRODUCT_CATEGORY( 'detail', ' ', ( #38 ) );
#30 = CALENDAR_DATE( 2020, 27, 2 );
#31 = LOCAL_TIME( 9, 20, 10.0000000000000, #49 );
#32 = PERSON_AND_ORGANIZATION( #50, #51 );
#33 = APPROVAL( #52, 'SOLID MODEL' );
#34 = APPROVAL_ROLE( 'APPROVED' );
#35 = SECURITY_CLASSIFICATION( '', '', #53 );
#36 = PRODUCT_DEFINITION_FORMATION_WITH_SPECIFIED_SOURCE( ' ', 'NONE', #38, .NOT_KNOWN. );
#37 = PRODUCT_DEFINITION( 'NONE', 'NONE', #36, #1 );
#38 = PRODUCT( '_FLEXA AK 5030.014.209', '_FLEXA AK 5030.014.209', 'PART-_FLEXA AK 5030.014.209-DESC', ( #54 ) );
#39 = PRODUCT_DEFINITION_SHAPE( 'NONE', 'NONE', #37 );
#40 = ADVANCED_BREP_SHAPE_REPRESENTATION( '_FLEXA AK 5030.014.209', ( #55, #56 ), #23 );
#43 = UNCERTAINTY_MEASURE_WITH_UNIT( LENGTH_MEASURE( 0.00100000000000000 ), #45, '', '' );
#45 =  ( CONVERSION_BASED_UNIT( 'MILLIMETRE', #59 )LENGTH_UNIT(  )NAMED_UNIT( #62 ) );
#46 =  ( NAMED_UNIT( #64 )PLANE_ANGLE_UNIT(  )SI_UNIT( $, .RADIAN. ) );
#47 =  ( NAMED_UNIT( #64 )SI_UNIT( $, .STERADIAN. )SOLID_ANGLE_UNIT(  ) );
#49 = COORDINATED_UNIVERSAL_TIME_OFFSET( 1, 0, .AHEAD. );
#50 = PERSON( '', 'UNSPECIFIED', $, $, $, $ );
#51 = ORGANIZATION( 'UNSPECIFIED', 'UNSPECIFIED', 'UNSPECIFIED' );
#52 = APPROVAL_STATUS( 'approved' );
#53 = SECURITY_CLASSIFICATION_LEVEL( 'unclassified' );
#54 = MECHANICAL_CONTEXT( '', #27, 'mechanical' );
#55 = MANIFOLD_SOLID_BREP( '_FLEXA AK 5030.014.209', #70 );
#56 = AXIS2_PLACEMENT_3D( '', #71, #72, #73 );
#59 = LENGTH_MEASURE_WITH_UNIT( LENGTH_MEASURE( 1.00000000000000 ), #74 );
#62 = DIMENSIONAL_EXPONENTS( 1.00000000000000, 0.000000000000000, 0.000000000000000, 0.000000000000000, 0.000000000000000, 0.000000000000000, 0.000000000000000 );
#64 = DIMENSIONAL_EXPONENTS( 0.000000000000000, 0.000000000000000, 0.000000000000000, 0.000000000000000, 0.000000000000000, 0.000000000000000, 0.000000000000000 );
#70 = CLOSED_SHELL( '', ( #75, #76, #77, #78, #79, #80, #81, #82, #83, #84, #85, #86 ) );
#71 = CARTESIAN_POINT( '', ( 0.000000000000000, 0.000000000000000, 0.000000000000000 ) );
#72 = DIRECTION( '', ( 0.000000000000000, 0.000000000000000, 1.00000000000000 ) );
#73 = DIRECTION( '', ( 1.00000000000000, 0.000000000000000, 0.000000000000000 ) );
#74 =  ( LENGTH_UNIT(  )NAMED_UNIT( #62 )SI_UNIT( .MILLI., .METRE. ) );
#75 = ADVANCED_FACE( '', ( #88, #89 ), #90, .F. );
#76 = ADVANCED_FACE( '', ( #91, #92 ), #93, .F. );
#77 = ADVANCED_FACE( '', ( #94, #95 ), #96, .T. );
#78 = ADVANCED_FACE( '', ( #97, #98 ), #99, .F. );
#79 = ADVANCED_FACE( '', ( #100, #101 ), #102, .F. );
#80 = ADVANCED_FACE( '', ( #103, #104 ), #105, .T. );
#81 = ADVANCED_FACE( '', ( #106, #107 ), #108, .T. );
#82 = ADVANCED_FACE( '', ( #109, #110 ), #111, .T. );
#83 = ADVANCED_FACE( '', ( #112, #113 ), #114, .F. );
#84 = ADVANCED_FACE( '', ( #115, #116 ), #117, .T. );
#85 = ADVANCED_FACE( '', ( #118 ), #119, .T. );
#86 = ADVANCED_FACE( '', ( #120, #121 ), #122, .T. );
#88 = FACE_BOUND( '', #123, .T. );
#89 = FACE_OUTER_BOUND( '', #124, .T. );
#90 = CONICAL_SURFACE( '', #125, 6.50000000000000, 0.496422753400000 );
#91 = FACE_OUTER_BOUND( '', #126, .T. );
#92 = FACE_BOUND( '', #127, .T. );
#93 = PLANE( '', #128 );
#94 = FACE_OUTER_BOUND( '', #129, .T. );
#95 = FACE_OUTER_BOUND( '', #130, .T. );
#96 = TOROIDAL_SURFACE( '', #131, 7.00000000000000, 0.500000000000000 );
#97 = FACE_OUTER_BOUND( '', #132, .T. );
#98 = FACE_OUTER_BOUND( '', #133, .T. );
#99 = CYLINDRICAL_SURFACE( '', #134, 6.50000000000000 );
#100 = FACE_BOUND( '', #135, .T. );
#101 = FACE_OUTER_BOUND( '', #136, .T. );
#102 = PLANE( '', #137 );
#103 = FACE_OUTER_BOUND( '', #138, .T. );
#104 = FACE_OUTER_BOUND( '', #139, .T. );
#105 = CYLINDRICAL_SURFACE( '', #140, 8.50000000000000 );
#106 = FACE_OUTER_BOUND( '', #141, .T. );
#107 = FACE_OUTER_BOUND( '', #142, .T. );
#108 = CYLINDRICAL_SURFACE( '', #143, 10.0000000000000 );
#109 = FACE_OUTER_BOUND( '', #144, .T. );
#110 = FACE_OUTER_BOUND( '', #145, .T. );
#111 = TOROIDAL_SURFACE( '', #146, 9.00000000000000, 1.00000000000000 );
#112 = FACE_BOUND( '', #147, .T. );
#113 = FACE_OUTER_BOUND( '', #148, .T. );
#114 = PLANE( '', #149 );
#115 = FACE_OUTER_BOUND( '', #150, .T. );
#116 = FACE_OUTER_BOUND( '', #151, .T. );
#117 = CYLINDRICAL_SURFACE( '', #152, 2.00000000000000 );
#118 = FACE_OUTER_BOUND( '', #153, .T. );
#119 = PLANE( '', #154 );
#120 = FACE_BOUND( '', #155, .T. );
#121 = FACE_OUTER_BOUND( '', #156, .T. );
#122 = CONICAL_SURFACE( '', #157, 8.50000000000000, 0.394791119700000 );
#123 = VERTEX_LOOP( '', #158 );
#124 = EDGE_LOOP( '', ( #159 ) );
#125 = AXIS2_PLACEMENT_3D( '', #160, #161, #162 );
#126 = EDGE_LOOP( '', ( #163 ) );
#127 = EDGE_LOOP( '', ( #164 ) );
#128 = AXIS2_PLACEMENT_3D( '', #165, #166, #167 );
#129 = EDGE_LOOP( '', ( #168 ) );
#130 = EDGE_LOOP( '', ( #169 ) );
#131 = AXIS2_PLACEMENT_3D( '', #170, #171, #172 );
#132 = EDGE_LOOP( '', ( #173 ) );
#133 = EDGE_LOOP( '', ( #174 ) );
#134 = AXIS2_PLACEMENT_3D( '', #175, #176, #177 );
#135 = EDGE_LOOP( '', ( #178 ) );
#136 = EDGE_LOOP( '', ( #179 ) );
#137 = AXIS2_PLACEMENT_3D( '', #180, #181, #182 );
#138 = EDGE_LOOP( '', ( #183 ) );
#139 = EDGE_LOOP( '', ( #184 ) );
#140 = AXIS2_PLACEMENT_3D( '', #185, #186, #187 );
#141 = EDGE_LOOP( '', ( #188 ) );
#142 = EDGE_LOOP( '', ( #189 ) );
#143 = AXIS2_PLACEMENT_3D( '', #190, #191, #192 );
#144 = EDGE_LOOP( '', ( #193 ) );
#145 = EDGE_LOOP( '', ( #194 ) );
#146 = AXIS2_PLACEMENT_3D( '', #195, #196, #197 );
#147 = EDGE_LOOP( '', ( #198 ) );
#148 = EDGE_LOOP( '', ( #199 ) );
#149 = AXIS2_PLACEMENT_3D( '', #200, #201, #202 );
#150 = EDGE_LOOP( '', ( #203 ) );
#151 = EDGE_LOOP( '', ( #204 ) );
#152 = AXIS2_PLACEMENT_3D( '', #205, #206, #207 );
#153 = EDGE_LOOP( '', ( #208 ) );
#154 = AXIS2_PLACEMENT_3D( '', #209, #210, #211 );
#155 = EDGE_LOOP( '', ( #212 ) );
#156 = EDGE_LOOP( '', ( #213 ) );
#157 = AXIS2_PLACEMENT_3D( '', #214, #215, #216 );
#158 = VERTEX_POINT( '', #217 );
#159 = ORIENTED_EDGE( '', *, *, #218, .F. );
#160 = CARTESIAN_POINT( '', ( 1.25000000000000, -2.89034333190549E-15, 0.000000000000000 ) );
#161 = DIRECTION( '', ( -1.00000000000000, -2.40861944325458E-16, 0.000000000000000 ) );
#162 = DIRECTION( '', ( 2.40861944325458E-16, -1.00000000000000, 0.000000000000000 ) );
#163 = ORIENTED_EDGE( '', *, *, #219, .F. );
#164 = ORIENTED_EDGE( '', *, *, #220, .T. );
#165 = CARTESIAN_POINT( '', ( -16.2500000000000, 0.000000000000000, 0.000000000000000 ) );
#166 = DIRECTION( '', ( 1.00000000000000, 0.000000000000000, -0.000000000000000 ) );
#167 = DIRECTION( '', ( -0.000000000000000, 0.000000000000000, -1.00000000000000 ) );
#168 = ORIENTED_EDGE( '', *, *, #221, .T. );
#169 = ORIENTED_EDGE( '', *, *, #220, .F. );
#170 = CARTESIAN_POINT( '', ( -15.7500000000000, -6.93889390390723E-15, 0.000000000000000 ) );
#171 = DIRECTION( '', ( 1.00000000000000, 2.40861944325458E-16, -0.000000000000000 ) );
#172 = DIRECTION( '', ( -2.40861944325458E-16, 1.00000000000000, 0.000000000000000 ) );
#173 = ORIENTED_EDGE( '', *, *, #218, .T. );
#174 = ORIENTED_EDGE( '', *, *, #221, .F. );
#175 = CARTESIAN_POINT( '', ( 13.2500000000000, -1.71142704861508E-30, 0.000000000000000 ) );
#176 = DIRECTION( '', ( -1.00000000000000, -2.40861944325458E-16, 0.000000000000000 ) );
#177 = DIRECTION( '', ( -2.40861944325458E-16, 1.00000000000000, 0.000000000000000 ) );
#178 = ORIENTED_EDGE( '', *, *, #222, .T. );
#179 = ORIENTED_EDGE( '', *, *, #223, .T. );
#180 = CARTESIAN_POINT( '', ( 13.2500000000000, 8.50000000000000, 0.000000000000000 ) );
#181 = DIRECTION( '', ( -1.00000000000000, 0.000000000000000, 0.000000000000000 ) );
#182 = DIRECTION( '', ( 0.000000000000000, 0.000000000000000, 1.00000000000000 ) );
#183 = ORIENTED_EDGE( '', *, *, #224, .F. );
#184 = ORIENTED_EDGE( '', *, *, #225, .F. );
#185 = CARTESIAN_POINT( '', ( 13.2500000000000, 0.000000000000000, 0.000000000000000 ) );
#186 = DIRECTION( '', ( -1.00000000000000, -0.000000000000000, 0.000000000000000 ) );
#187 = DIRECTION( '', ( -0.000000000000000, 0.000000000000000, -1.00000000000000 ) );
#188 = ORIENTED_EDGE( '', *, *, #226, .F. );
#189 = ORIENTED_EDGE( '', *, *, #219, .T. );
#190 = CARTESIAN_POINT( '', ( -14.2500000000000, 0.000000000000000, 0.000000000000000 ) );
#191 = DIRECTION( '', ( -1.00000000000000, -0.000000000000000, 0.000000000000000 ) );
#192 = DIRECTION( '', ( -0.000000000000000, 0.000000000000000, -1.00000000000000 ) );
#193 = ORIENTED_EDGE( '', *, *, #226, .T. );
#194 = ORIENTED_EDGE( '', *, *, #227, .F. );
#195 = CARTESIAN_POINT( '', ( -15.2500000000000, 0.000000000000000, 0.000000000000000 ) );
#196 = DIRECTION( '', ( 1.00000000000000, 0.000000000000000, -0.000000000000000 ) );
#197 = DIRECTION( '', ( -0.000000000000000, 0.000000000000000, -1.00000000000000 ) );
#198 = ORIENTED_EDGE( '', *, *, #225, .T. );
#199 = ORIENTED_EDGE( '', *, *, #227, .T. );
#200 = CARTESIAN_POINT( '', ( -14.2500000000000, 9.00000000000000, 0.000000000000000 ) );
#201 = DIRECTION( '', ( -1.00000000000000, 0.000000000000000, 0.000000000000000 ) );
#202 = DIRECTION( '', ( 0.000000000000000, 0.000000000000000, 1.00000000000000 ) );
#203 = ORIENTED_EDGE( '', *, *, #228, .F. );
#204 = ORIENTED_EDGE( '', *, *, #222, .F. );
#205 = CARTESIAN_POINT( '', ( -16.2500000000000, 0.000000000000000, 0.000000000000000 ) );
#206 = DIRECTION( '', ( -1.00000000000000, -0.000000000000000, -0.000000000000000 ) );
#207 = DIRECTION( '', ( 0.000000000000000, 0.000000000000000, -1.00000000000000 ) );
#208 = ORIENTED_EDGE( '', *, *, #228, .T. );
#209 = CARTESIAN_POINT( '', ( 16.2500000000000, 0.000000000000000, 0.000000000000000 ) );
#210 = DIRECTION( '', ( 1.00000000000000, 0.000000000000000, 0.000000000000000 ) );
#211 = DIRECTION( '', ( 0.000000000000000, 0.000000000000000, -1.00000000000000 ) );
#212 = ORIENTED_EDGE( '', *, *, #223, .F. );
#213 = ORIENTED_EDGE( '', *, *, #224, .T. );
#214 = CARTESIAN_POINT( '', ( 1.25000000000000, 0.000000000000000, 0.000000000000000 ) );
#215 = DIRECTION( '', ( -1.00000000000000, 0.000000000000000, -0.000000000000000 ) );
#216 = DIRECTION( '', ( 0.000000000000000, 0.000000000000000, 1.00000000000000 ) );
#217 = CARTESIAN_POINT( '', ( 13.2500000000000, -8.67361737988404E-16, 0.000000000000000 ) );
#218 = EDGE_CURVE( '', #229, #229, #230, .T. );
#219 = EDGE_CURVE( '', #231, #231, #232, .T. );
#220 = EDGE_CURVE( '', #233, #233, #234, .T. );
#221 = EDGE_CURVE( '', #235, #235, #236, .T. );
#222 = EDGE_CURVE( '', #237, #237, #238, .T. );
#223 = EDGE_CURVE( '', #239, #239, #240, .T. );
#224 = EDGE_CURVE( '', #241, #241, #242, .T. );
#225 = EDGE_CURVE( '', #243, #243, #244, .T. );
#226 = EDGE_CURVE( '', #245, #245, #246, .T. );
#227 = EDGE_CURVE( '', #247, #247, #248, .T. );
#228 = EDGE_CURVE( '', #249, #249, #250, .T. );
#229 = VERTEX_POINT( '', #251 );
#230 = CIRCLE( '', #252, 6.50000000000000 );
#231 = VERTEX_POINT( '', #253 );
#232 = CIRCLE( '', #254, 10.0000000000000 );
#233 = VERTEX_POINT( '', #255 );
#234 = CIRCLE( '', #256, 7.00000000000000 );
#235 = VERTEX_POINT( '', #257 );
#236 = CIRCLE( '', #258, 6.50000000000000 );
#237 = VERTEX_POINT( '', #259 );
#238 = CIRCLE( '', #260, 2.00000000000000 );
#239 = VERTEX_POINT( '', #261 );
#240 = CIRCLE( '', #262, 3.50000000000000 );
#241 = VERTEX_POINT( '', #263 );
#242 = CIRCLE( '', #264, 8.50000000000000 );
#243 = VERTEX_POINT( '', #265 );
#244 = CIRCLE( '', #266, 8.50000000000000 );
#245 = VERTEX_POINT( '', #267 );
#246 = CIRCLE( '', #268, 10.0000000000000 );
#247 = VERTEX_POINT( '', #269 );
#248 = CIRCLE( '', #270, 9.00000000000000 );
#249 = VERTEX_POINT( '', #271 );
#250 = CIRCLE( '', #272, 2.00000000000000 );
#251 = CARTESIAN_POINT( '', ( 1.24999999999999, 6.50000000000000, 0.000000000000000 ) );
#252 = AXIS2_PLACEMENT_3D( '', #273, #274, #275 );
#253 = CARTESIAN_POINT( '', ( -16.2500000000000, 0.000000000000000, -10.0000000000000 ) );
#254 = AXIS2_PLACEMENT_3D( '', #276, #277, #278 );
#255 = CARTESIAN_POINT( '', ( -16.2500000000000, 7.00000000000001, 0.000000000000000 ) );
#256 = AXIS2_PLACEMENT_3D( '', #279, #280, #281 );
#257 = CARTESIAN_POINT( '', ( -15.7500000000000, 6.50000000000001, 0.000000000000000 ) );
#258 = AXIS2_PLACEMENT_3D( '', #282, #283, #284 );
#259 = CARTESIAN_POINT( '', ( 13.2500000000000, 0.000000000000000, 2.00000000000000 ) );
#260 = AXIS2_PLACEMENT_3D( '', #285, #286, #287 );
#261 = CARTESIAN_POINT( '', ( 13.2500000000000, 0.000000000000000, -3.50000000000000 ) );
#262 = AXIS2_PLACEMENT_3D( '', #288, #289, #290 );
#263 = CARTESIAN_POINT( '', ( 1.25000000000000, 0.000000000000000, -8.50000000000000 ) );
#264 = AXIS2_PLACEMENT_3D( '', #291, #292, #293 );
#265 = CARTESIAN_POINT( '', ( -14.2500000000000, 0.000000000000000, 8.50000000000000 ) );
#266 = AXIS2_PLACEMENT_3D( '', #294, #295, #296 );
#267 = CARTESIAN_POINT( '', ( -15.2500000000000, 0.000000000000000, -10.0000000000000 ) );
#268 = AXIS2_PLACEMENT_3D( '', #297, #298, #299 );
#269 = CARTESIAN_POINT( '', ( -14.2500000000000, 0.000000000000000, -9.00000000000000 ) );
#270 = AXIS2_PLACEMENT_3D( '', #300, #301, #302 );
#271 = CARTESIAN_POINT( '', ( 16.2500000000000, 0.000000000000000, -2.00000000000000 ) );
#272 = AXIS2_PLACEMENT_3D( '', #303, #304, #305 );
#273 = CARTESIAN_POINT( '', ( 1.25000000000000, -2.89034333190549E-15, 0.000000000000000 ) );
#274 = DIRECTION( '', ( 1.00000000000000, 2.40861944325458E-16, -0.000000000000000 ) );
#275 = DIRECTION( '', ( -2.40861944325458E-16, 1.00000000000000, 0.000000000000000 ) );
#276 = CARTESIAN_POINT( '', ( -16.2500000000000, 0.000000000000000, 0.000000000000000 ) );
#277 = DIRECTION( '', ( 1.00000000000000, 0.000000000000000, -0.000000000000000 ) );
#278 = DIRECTION( '', ( -0.000000000000000, 0.000000000000000, -1.00000000000000 ) );
#279 = CARTESIAN_POINT( '', ( -16.2500000000000, -7.10542735760100E-15, 0.000000000000000 ) );
#280 = DIRECTION( '', ( 1.00000000000000, 2.40861944325458E-16, -0.000000000000000 ) );
#281 = DIRECTION( '', ( -2.40861944325458E-16, 1.00000000000000, 0.000000000000000 ) );
#282 = CARTESIAN_POINT( '', ( -15.7500000000000, -6.98499638543827E-15, 0.000000000000000 ) );
#283 = DIRECTION( '', ( 1.00000000000000, 2.40861944325458E-16, -0.000000000000000 ) );
#284 = DIRECTION( '', ( -2.40861944325458E-16, 1.00000000000000, 0.000000000000000 ) );
#285 = CARTESIAN_POINT( '', ( 13.2500000000000, 0.000000000000000, 0.000000000000000 ) );
#286 = DIRECTION( '', ( -1.00000000000000, 0.000000000000000, 0.000000000000000 ) );
#287 = DIRECTION( '', ( 0.000000000000000, 0.000000000000000, 1.00000000000000 ) );
#288 = CARTESIAN_POINT( '', ( 13.2500000000000, 0.000000000000000, 0.000000000000000 ) );
#289 = DIRECTION( '', ( 1.00000000000000, 0.000000000000000, -0.000000000000000 ) );
#290 = DIRECTION( '', ( -0.000000000000000, 0.000000000000000, -1.00000000000000 ) );
#291 = CARTESIAN_POINT( '', ( 1.25000000000000, 0.000000000000000, 0.000000000000000 ) );
#292 = DIRECTION( '', ( 1.00000000000000, 0.000000000000000, -0.000000000000000 ) );
#293 = DIRECTION( '', ( -0.000000000000000, 0.000000000000000, -1.00000000000000 ) );
#294 = CARTESIAN_POINT( '', ( -14.2500000000000, 0.000000000000000, 0.000000000000000 ) );
#295 = DIRECTION( '', ( -1.00000000000000, 0.000000000000000, 0.000000000000000 ) );
#296 = DIRECTION( '', ( 0.000000000000000, 0.000000000000000, 1.00000000000000 ) );
#297 = CARTESIAN_POINT( '', ( -15.2500000000000, 0.000000000000000, 0.000000000000000 ) );
#298 = DIRECTION( '', ( 1.00000000000000, 0.000000000000000, -0.000000000000000 ) );
#299 = DIRECTION( '', ( -0.000000000000000, 0.000000000000000, -1.00000000000000 ) );
#300 = CARTESIAN_POINT( '', ( -14.2500000000000, 0.000000000000000, 0.000000000000000 ) );
#301 = DIRECTION( '', ( 1.00000000000000, 0.000000000000000, -0.000000000000000 ) );
#302 = DIRECTION( '', ( -0.000000000000000, 0.000000000000000, -1.00000000000000 ) );
#303 = CARTESIAN_POINT( '', ( 16.2500000000000, 0.000000000000000, 0.000000000000000 ) );
#304 = DIRECTION( '', ( 1.00000000000000, 0.000000000000000, 0.000000000000000 ) );
#305 = DIRECTION( '', ( 0.000000000000000, 0.000000000000000, -1.00000000000000 ) );
ENDSEC;
END-ISO-10303-21;
