ISO-10303-21;
HEADER;
FILE_DESCRIPTION( ( 'STEP AP203' ), '1' );
FILE_NAME( 'p:/temp/worker_36/temp/exporttempdir_2256_29_qi6CS/format_0/FLEXAspiral PE 0241.602.150.stp', '2020-03-09T12:56:44', ( '' ), ( '' ), ' ', 'PARTsolutions', ' ' );
FILE_SCHEMA( ( 'CONFIG_CONTROL_DESIGN' ) );
ENDSEC;
DATA;
#1 = DESIGN_CONTEXT( '', #27, 'design' );
#2 = APPLICATION_PROTOCOL_DEFINITION( 'international standard', 'config_control_design', 1994, #27 );
#3 = PRODUCT_CATEGORY_RELATIONSHIP( 'NONE', 'NONE', #28, #29 );
#4 = DATE_AND_TIME( #30, #31 );
#5 = DATE_TIME_ROLE( 'creation_date' );
#6 = DATE_TIME_ROLE( 'classification_date' );
#7 = PERSON_AND_ORGANIZATION_ROLE( 'creator' );
#8 = PERSON_AND_ORGANIZATION_ROLE( 'design_supplier' );
#9 = PERSON_AND_ORGANIZATION_ROLE( 'classification_officer' );
#10 = PERSON_AND_ORGANIZATION_ROLE( 'design_owner' );
#11 = APPROVAL_PERSON_ORGANIZATION( #32, #33, #34 );
#12 = APPROVAL_DATE_TIME( #4, #33 );
#13 = CC_DESIGN_APPROVAL( #33, ( #35, #36, #37 ) );
#14 = CC_DESIGN_DATE_AND_TIME_ASSIGNMENT( #4, #5, ( #37 ) );
#15 = CC_DESIGN_DATE_AND_TIME_ASSIGNMENT( #4, #6, ( #35 ) );
#16 = CC_DESIGN_PERSON_AND_ORGANIZATION_ASSIGNMENT( #32, #10, ( #38 ) );
#17 = CC_DESIGN_PERSON_AND_ORGANIZATION_ASSIGNMENT( #32, #7, ( #37 ) );
#18 = CC_DESIGN_PERSON_AND_ORGANIZATION_ASSIGNMENT( #32, #7, ( #36 ) );
#19 = CC_DESIGN_PERSON_AND_ORGANIZATION_ASSIGNMENT( #32, #8, ( #36 ) );
#20 = CC_DESIGN_SECURITY_CLASSIFICATION( #35, ( #36 ) );
#21 = CC_DESIGN_PERSON_AND_ORGANIZATION_ASSIGNMENT( #32, #9, ( #35 ) );
#22 = SHAPE_DEFINITION_REPRESENTATION( #39, #40 );
#23 =  ( GEOMETRIC_REPRESENTATION_CONTEXT( 3 )GLOBAL_UNCERTAINTY_ASSIGNED_CONTEXT( ( #43 ) )GLOBAL_UNIT_ASSIGNED_CONTEXT( ( #45, #46, #47 ) )REPRESENTATION_CONTEXT( 'NONE', 'WORKSPACE' ) );
#27 = APPLICATION_CONTEXT( 'configuration controlled 3D designs of mechanical parts and assemblies' );
#28 = PRODUCT_CATEGORY( 'part', 'NONE' );
#29 = PRODUCT_RELATED_PRODUCT_CATEGORY( 'detail', ' ', ( #38 ) );
#30 = CALENDAR_DATE( 2020, 9, 2 );
#31 = LOCAL_TIME( 13, 56, 44.0000000000000, #49 );
#32 = PERSON_AND_ORGANIZATION( #50, #51 );
#33 = APPROVAL( #52, 'SOLID MODEL' );
#34 = APPROVAL_ROLE( 'APPROVED' );
#35 = SECURITY_CLASSIFICATION( '', '', #53 );
#36 = PRODUCT_DEFINITION_FORMATION_WITH_SPECIFIED_SOURCE( ' ', 'NONE', #38, .NOT_KNOWN. );
#37 = PRODUCT_DEFINITION( 'NONE', 'NONE', #36, #1 );
#38 = PRODUCT( '_FLEXAspiral PE 0241.602.150', '_FLEXAspiral PE 0241.602.150', 'PART-_FLEXAspiral PE 0241.602.150-DESC', ( #54 ) );
#39 = PRODUCT_DEFINITION_SHAPE( 'NONE', 'NONE', #37 );
#40 = ADVANCED_BREP_SHAPE_REPRESENTATION( '_FLEXAspiral PE 0241.602.150', ( #55, #56 ), #23 );
#43 = UNCERTAINTY_MEASURE_WITH_UNIT( LENGTH_MEASURE( 0.00100000000000000 ), #45, '', '' );
#45 =  ( CONVERSION_BASED_UNIT( 'MILLIMETRE', #59 )LENGTH_UNIT(  )NAMED_UNIT( #62 ) );
#46 =  ( NAMED_UNIT( #64 )PLANE_ANGLE_UNIT(  )SI_UNIT( $, .RADIAN. ) );
#47 =  ( NAMED_UNIT( #64 )SI_UNIT( $, .STERADIAN. )SOLID_ANGLE_UNIT(  ) );
#49 = COORDINATED_UNIVERSAL_TIME_OFFSET( 1, 0, .AHEAD. );
#50 = PERSON( '', 'UNSPECIFIED', $, $, $, $ );
#51 = ORGANIZATION( 'UNSPECIFIED', 'UNSPECIFIED', 'UNSPECIFIED' );
#52 = APPROVAL_STATUS( 'approved' );
#53 = SECURITY_CLASSIFICATION_LEVEL( 'unclassified' );
#54 = MECHANICAL_CONTEXT( '', #27, 'mechanical' );
#55 = MANIFOLD_SOLID_BREP( '_FLEXAspiral PE 0241.602.150', #70 );
#56 = AXIS2_PLACEMENT_3D( '', #71, #72, #73 );
#59 = LENGTH_MEASURE_WITH_UNIT( LENGTH_MEASURE( 1.00000000000000 ), #74 );
#62 = DIMENSIONAL_EXPONENTS( 1.00000000000000, 0.000000000000000, 0.000000000000000, 0.000000000000000, 0.000000000000000, 0.000000000000000, 0.000000000000000 );
#64 = DIMENSIONAL_EXPONENTS( 0.000000000000000, 0.000000000000000, 0.000000000000000, 0.000000000000000, 0.000000000000000, 0.000000000000000, 0.000000000000000 );
#70 = CLOSED_SHELL( '', ( #75, #76, #77, #78 ) );
#71 = CARTESIAN_POINT( '', ( 0.000000000000000, 0.000000000000000, 0.000000000000000 ) );
#72 = DIRECTION( '', ( 0.000000000000000, 0.000000000000000, 1.00000000000000 ) );
#73 = DIRECTION( '', ( 1.00000000000000, 0.000000000000000, 0.000000000000000 ) );
#74 =  ( LENGTH_UNIT(  )NAMED_UNIT( #62 )SI_UNIT( .MILLI., .METRE. ) );
#75 = ADVANCED_FACE( '', ( #80, #81 ), #82, .T. );
#76 = ADVANCED_FACE( '', ( #83, #84 ), #85, .F. );
#77 = ADVANCED_FACE( '', ( #86, #87 ), #88, .T. );
#78 = ADVANCED_FACE( '', ( #89, #90 ), #91, .T. );
#80 = FACE_BOUND( '', #92, .T. );
#81 = FACE_OUTER_BOUND( '', #93, .T. );
#82 = PLANE( '', #94 );
#83 = FACE_OUTER_BOUND( '', #95, .T. );
#84 = FACE_OUTER_BOUND( '', #96, .T. );
#85 = CYLINDRICAL_SURFACE( '', #97, 4.50000000000000 );
#86 = FACE_OUTER_BOUND( '', #98, .T. );
#87 = FACE_BOUND( '', #99, .T. );
#88 = PLANE( '', #100 );
#89 = FACE_OUTER_BOUND( '', #101, .T. );
#90 = FACE_OUTER_BOUND( '', #102, .T. );
#91 = CYLINDRICAL_SURFACE( '', #103, 6.00000000000000 );
#92 = EDGE_LOOP( '', ( #104 ) );
#93 = EDGE_LOOP( '', ( #105 ) );
#94 = AXIS2_PLACEMENT_3D( '', #106, #107, #108 );
#95 = EDGE_LOOP( '', ( #109 ) );
#96 = EDGE_LOOP( '', ( #110 ) );
#97 = AXIS2_PLACEMENT_3D( '', #111, #112, #113 );
#98 = EDGE_LOOP( '', ( #114 ) );
#99 = EDGE_LOOP( '', ( #115 ) );
#100 = AXIS2_PLACEMENT_3D( '', #116, #117, #118 );
#101 = EDGE_LOOP( '', ( #119 ) );
#102 = EDGE_LOOP( '', ( #120 ) );
#103 = AXIS2_PLACEMENT_3D( '', #121, #122, #123 );
#104 = ORIENTED_EDGE( '', *, *, #124, .T. );
#105 = ORIENTED_EDGE( '', *, *, #125, .F. );
#106 = CARTESIAN_POINT( '', ( 0.000000000000000, 6.00000000000000, 0.000000000000000 ) );
#107 = DIRECTION( '', ( -1.00000000000000, 0.000000000000000, 0.000000000000000 ) );
#108 = DIRECTION( '', ( 0.000000000000000, 0.000000000000000, 1.00000000000000 ) );
#109 = ORIENTED_EDGE( '', *, *, #126, .T. );
#110 = ORIENTED_EDGE( '', *, *, #124, .F. );
#111 = CARTESIAN_POINT( '', ( 150.000000000000, 0.000000000000000, 0.000000000000000 ) );
#112 = DIRECTION( '', ( -1.00000000000000, -0.000000000000000, 0.000000000000000 ) );
#113 = DIRECTION( '', ( -0.000000000000000, 0.000000000000000, -1.00000000000000 ) );
#114 = ORIENTED_EDGE( '', *, *, #127, .T. );
#115 = ORIENTED_EDGE( '', *, *, #126, .F. );
#116 = CARTESIAN_POINT( '', ( 150.000000000000, 4.50000000000000, 0.000000000000000 ) );
#117 = DIRECTION( '', ( 1.00000000000000, 0.000000000000000, -0.000000000000000 ) );
#118 = DIRECTION( '', ( -0.000000000000000, 0.000000000000000, -1.00000000000000 ) );
#119 = ORIENTED_EDGE( '', *, *, #125, .T. );
#120 = ORIENTED_EDGE( '', *, *, #127, .F. );
#121 = CARTESIAN_POINT( '', ( 150.000000000000, 0.000000000000000, 0.000000000000000 ) );
#122 = DIRECTION( '', ( -1.00000000000000, -0.000000000000000, 0.000000000000000 ) );
#123 = DIRECTION( '', ( -0.000000000000000, 0.000000000000000, -1.00000000000000 ) );
#124 = EDGE_CURVE( '', #128, #128, #129, .T. );
#125 = EDGE_CURVE( '', #130, #130, #131, .T. );
#126 = EDGE_CURVE( '', #132, #132, #133, .T. );
#127 = EDGE_CURVE( '', #134, #134, #135, .T. );
#128 = VERTEX_POINT( '', #136 );
#129 = CIRCLE( '', #137, 4.50000000000000 );
#130 = VERTEX_POINT( '', #138 );
#131 = CIRCLE( '', #139, 6.00000000000000 );
#132 = VERTEX_POINT( '', #140 );
#133 = CIRCLE( '', #141, 4.50000000000000 );
#134 = VERTEX_POINT( '', #142 );
#135 = CIRCLE( '', #143, 6.00000000000000 );
#136 = CARTESIAN_POINT( '', ( 0.000000000000000, 0.000000000000000, -4.50000000000000 ) );
#137 = AXIS2_PLACEMENT_3D( '', #144, #145, #146 );
#138 = CARTESIAN_POINT( '', ( 0.000000000000000, 0.000000000000000, -6.00000000000000 ) );
#139 = AXIS2_PLACEMENT_3D( '', #147, #148, #149 );
#140 = CARTESIAN_POINT( '', ( 150.000000000000, 0.000000000000000, -4.50000000000000 ) );
#141 = AXIS2_PLACEMENT_3D( '', #150, #151, #152 );
#142 = CARTESIAN_POINT( '', ( 150.000000000000, 0.000000000000000, -6.00000000000000 ) );
#143 = AXIS2_PLACEMENT_3D( '', #153, #154, #155 );
#144 = CARTESIAN_POINT( '', ( 0.000000000000000, 0.000000000000000, 0.000000000000000 ) );
#145 = DIRECTION( '', ( 1.00000000000000, 0.000000000000000, -0.000000000000000 ) );
#146 = DIRECTION( '', ( -0.000000000000000, 0.000000000000000, -1.00000000000000 ) );
#147 = CARTESIAN_POINT( '', ( 0.000000000000000, 0.000000000000000, 0.000000000000000 ) );
#148 = DIRECTION( '', ( 1.00000000000000, 0.000000000000000, -0.000000000000000 ) );
#149 = DIRECTION( '', ( -0.000000000000000, 0.000000000000000, -1.00000000000000 ) );
#150 = CARTESIAN_POINT( '', ( 150.000000000000, 0.000000000000000, 0.000000000000000 ) );
#151 = DIRECTION( '', ( 1.00000000000000, 0.000000000000000, -0.000000000000000 ) );
#152 = DIRECTION( '', ( -0.000000000000000, 0.000000000000000, -1.00000000000000 ) );
#153 = CARTESIAN_POINT( '', ( 150.000000000000, 0.000000000000000, 0.000000000000000 ) );
#154 = DIRECTION( '', ( 1.00000000000000, 0.000000000000000, -0.000000000000000 ) );
#155 = DIRECTION( '', ( -0.000000000000000, 0.000000000000000, -1.00000000000000 ) );
ENDSEC;
END-ISO-10303-21;
