ISO-10303-21;
HEADER;
FILE_DESCRIPTION( ( 'STEP AP203' ), '1' );
FILE_NAME( 'p:/temp/worker_201/temp/exporttempdir_3980_41_kRHUu/format_0/FLEXA RQK 5020.066.2021.stp', '2020-03-27T12:42:39', ( 'License CC BY-ND 4.0' ), ( 'CADENAS' ), ' ', 'PARTsolutions', ' ' );
FILE_SCHEMA( ( 'CONFIG_CONTROL_DESIGN' ) );
ENDSEC;
DATA;
#1 = DESIGN_CONTEXT( '', #27, 'design' );
#2 = APPLICATION_PROTOCOL_DEFINITION( 'international standard', 'config_control_design', 1994, #27 );
#3 = PRODUCT_CATEGORY_RELATIONSHIP( 'NONE', 'NONE', #28, #29 );
#4 = DATE_AND_TIME( #30, #31 );
#5 = DATE_TIME_ROLE( 'creation_date' );
#6 = DATE_TIME_ROLE( 'classification_date' );
#7 = PERSON_AND_ORGANIZATION_ROLE( 'creator' );
#8 = PERSON_AND_ORGANIZATION_ROLE( 'design_supplier' );
#9 = PERSON_AND_ORGANIZATION_ROLE( 'classification_officer' );
#10 = PERSON_AND_ORGANIZATION_ROLE( 'design_owner' );
#11 = APPROVAL_PERSON_ORGANIZATION( #32, #33, #34 );
#12 = APPROVAL_DATE_TIME( #4, #33 );
#13 = CC_DESIGN_APPROVAL( #33, ( #35, #36, #37 ) );
#14 = CC_DESIGN_DATE_AND_TIME_ASSIGNMENT( #4, #5, ( #37 ) );
#15 = CC_DESIGN_DATE_AND_TIME_ASSIGNMENT( #4, #6, ( #35 ) );
#16 = CC_DESIGN_PERSON_AND_ORGANIZATION_ASSIGNMENT( #32, #10, ( #38 ) );
#17 = CC_DESIGN_PERSON_AND_ORGANIZATION_ASSIGNMENT( #32, #7, ( #37 ) );
#18 = CC_DESIGN_PERSON_AND_ORGANIZATION_ASSIGNMENT( #32, #7, ( #36 ) );
#19 = CC_DESIGN_PERSON_AND_ORGANIZATION_ASSIGNMENT( #32, #8, ( #36 ) );
#20 = CC_DESIGN_SECURITY_CLASSIFICATION( #35, ( #36 ) );
#21 = CC_DESIGN_PERSON_AND_ORGANIZATION_ASSIGNMENT( #32, #9, ( #35 ) );
#22 = SHAPE_DEFINITION_REPRESENTATION( #39, #40 );
#23 =  ( GEOMETRIC_REPRESENTATION_CONTEXT( 3 )GLOBAL_UNCERTAINTY_ASSIGNED_CONTEXT( ( #43 ) )GLOBAL_UNIT_ASSIGNED_CONTEXT( ( #45, #46, #47 ) )REPRESENTATION_CONTEXT( 'NONE', 'WORKSPACE' ) );
#27 = APPLICATION_CONTEXT( 'configuration controlled 3D designs of mechanical parts and assemblies' );
#28 = PRODUCT_CATEGORY( 'part', 'NONE' );
#29 = PRODUCT_RELATED_PRODUCT_CATEGORY( 'detail', ' ', ( #38 ) );
#30 = CALENDAR_DATE( 2020, 27, 2 );
#31 = LOCAL_TIME( 13, 42, 39.0000000000000, #49 );
#32 = PERSON_AND_ORGANIZATION( #50, #51 );
#33 = APPROVAL( #52, 'SOLID MODEL' );
#34 = APPROVAL_ROLE( 'APPROVED' );
#35 = SECURITY_CLASSIFICATION( '', '', #53 );
#36 = PRODUCT_DEFINITION_FORMATION_WITH_SPECIFIED_SOURCE( ' ', 'NONE', #38, .NOT_KNOWN. );
#37 = PRODUCT_DEFINITION( 'NONE', 'NONE', #36, #1 );
#38 = PRODUCT( '_FLEXA RQK 5020.066.2021', '_FLEXA RQK 5020.066.2021', 'PART-_FLEXA RQK 5020.066.2021-DESC', ( #54 ) );
#39 = PRODUCT_DEFINITION_SHAPE( 'NONE', 'NONE', #37 );
#40 = ADVANCED_BREP_SHAPE_REPRESENTATION( '_FLEXA RQK 5020.066.2021', ( #55, #56 ), #23 );
#43 = UNCERTAINTY_MEASURE_WITH_UNIT( LENGTH_MEASURE( 0.00100000000000000 ), #45, '', '' );
#45 =  ( CONVERSION_BASED_UNIT( 'MILLIMETRE', #59 )LENGTH_UNIT(  )NAMED_UNIT( #62 ) );
#46 =  ( NAMED_UNIT( #64 )PLANE_ANGLE_UNIT(  )SI_UNIT( $, .RADIAN. ) );
#47 =  ( NAMED_UNIT( #64 )SI_UNIT( $, .STERADIAN. )SOLID_ANGLE_UNIT(  ) );
#49 = COORDINATED_UNIVERSAL_TIME_OFFSET( 1, 0, .AHEAD. );
#50 = PERSON( '', 'UNSPECIFIED', $, $, $, $ );
#51 = ORGANIZATION( 'UNSPECIFIED', 'UNSPECIFIED', 'UNSPECIFIED' );
#52 = APPROVAL_STATUS( 'approved' );
#53 = SECURITY_CLASSIFICATION_LEVEL( 'unclassified' );
#54 = MECHANICAL_CONTEXT( '', #27, 'mechanical' );
#55 = MANIFOLD_SOLID_BREP( '_FLEXA RQK 5020.066.2021', #70 );
#56 = AXIS2_PLACEMENT_3D( '', #71, #72, #73 );
#59 = LENGTH_MEASURE_WITH_UNIT( LENGTH_MEASURE( 1.00000000000000 ), #74 );
#62 = DIMENSIONAL_EXPONENTS( 1.00000000000000, 0.000000000000000, 0.000000000000000, 0.000000000000000, 0.000000000000000, 0.000000000000000, 0.000000000000000 );
#64 = DIMENSIONAL_EXPONENTS( 0.000000000000000, 0.000000000000000, 0.000000000000000, 0.000000000000000, 0.000000000000000, 0.000000000000000, 0.000000000000000 );
#70 = CLOSED_SHELL( '', ( #75, #76, #77, #78, #79, #80, #81, #82, #83, #84, #85, #86 ) );
#71 = CARTESIAN_POINT( '', ( 0.000000000000000, 0.000000000000000, 0.000000000000000 ) );
#72 = DIRECTION( '', ( 0.000000000000000, 0.000000000000000, 1.00000000000000 ) );
#73 = DIRECTION( '', ( 1.00000000000000, 0.000000000000000, 0.000000000000000 ) );
#74 =  ( LENGTH_UNIT(  )NAMED_UNIT( #62 )SI_UNIT( .MILLI., .METRE. ) );
#75 = ADVANCED_FACE( '', ( #88, #89 ), #90, .F. );
#76 = ADVANCED_FACE( '', ( #91, #92, #93 ), #94, .T. );
#77 = ADVANCED_FACE( '', ( #95, #96 ), #97, .F. );
#78 = ADVANCED_FACE( '', ( #98, #99 ), #100, .F. );
#79 = ADVANCED_FACE( '', ( #101, #102, #103 ), #104, .T. );
#80 = ADVANCED_FACE( '', ( #105, #106 ), #107, .F. );
#81 = ADVANCED_FACE( '', ( #108, #109 ), #110, .T. );
#82 = ADVANCED_FACE( '', ( #111, #112 ), #113, .F. );
#83 = ADVANCED_FACE( '', ( #114, #115 ), #116, .T. );
#84 = ADVANCED_FACE( '', ( #117, #118 ), #119, .F. );
#85 = ADVANCED_FACE( '', ( #120, #121 ), #122, .F. );
#86 = ADVANCED_FACE( '', ( #123, #124 ), #125, .T. );
#88 = FACE_BOUND( '', #126, .T. );
#89 = FACE_OUTER_BOUND( '', #127, .T. );
#90 = PLANE( '', #128 );
#91 = FACE_BOUND( '', #129, .T. );
#92 = FACE_OUTER_BOUND( '', #130, .T. );
#93 = FACE_OUTER_BOUND( '', #131, .T. );
#94 = TOROIDAL_SURFACE( '', #132, 17.2500000000000, 1.00000000000000 );
#95 = FACE_OUTER_BOUND( '', #133, .T. );
#96 = FACE_BOUND( '', #134, .T. );
#97 = PLANE( '', #135 );
#98 = FACE_OUTER_BOUND( '', #136, .T. );
#99 = FACE_BOUND( '', #137, .T. );
#100 = PLANE( '', #138 );
#101 = FACE_BOUND( '', #139, .T. );
#102 = FACE_OUTER_BOUND( '', #140, .T. );
#103 = FACE_OUTER_BOUND( '', #141, .T. );
#104 = TOROIDAL_SURFACE( '', #142, 17.2500000000000, 1.00000000000000 );
#105 = FACE_OUTER_BOUND( '', #143, .T. );
#106 = FACE_OUTER_BOUND( '', #144, .T. );
#107 = CYLINDRICAL_SURFACE( '', #145, 14.2500000000000 );
#108 = FACE_BOUND( '', #146, .T. );
#109 = FACE_OUTER_BOUND( '', #147, .T. );
#110 = PLANE( '', #148 );
#111 = FACE_OUTER_BOUND( '', #149, .T. );
#112 = FACE_OUTER_BOUND( '', #150, .T. );
#113 = CYLINDRICAL_SURFACE( '', #151, 12.7500000000000 );
#114 = FACE_OUTER_BOUND( '', #152, .T. );
#115 = FACE_BOUND( '', #153, .T. );
#116 = PLANE( '', #154 );
#117 = FACE_OUTER_BOUND( '', #155, .T. );
#118 = FACE_OUTER_BOUND( '', #156, .T. );
#119 = CYLINDRICAL_SURFACE( '', #157, 14.2500000000000 );
#120 = FACE_BOUND( '', #158, .T. );
#121 = FACE_OUTER_BOUND( '', #159, .T. );
#122 = PLANE( '', #160 );
#123 = FACE_OUTER_BOUND( '', #161, .T. );
#124 = FACE_OUTER_BOUND( '', #162, .T. );
#125 = CYLINDRICAL_SURFACE( '', #163, 16.2500000000000 );
#126 = EDGE_LOOP( '', ( #164 ) );
#127 = EDGE_LOOP( '', ( #165 ) );
#128 = AXIS2_PLACEMENT_3D( '', #166, #167, #168 );
#129 = VERTEX_LOOP( '', #169 );
#130 = EDGE_LOOP( '', ( #170 ) );
#131 = EDGE_LOOP( '', ( #171 ) );
#132 = AXIS2_PLACEMENT_3D( '', #172, #173, #174 );
#133 = EDGE_LOOP( '', ( #175 ) );
#134 = EDGE_LOOP( '', ( #176 ) );
#135 = AXIS2_PLACEMENT_3D( '', #177, #178, #179 );
#136 = EDGE_LOOP( '', ( #180 ) );
#137 = EDGE_LOOP( '', ( #181 ) );
#138 = AXIS2_PLACEMENT_3D( '', #182, #183, #184 );
#139 = VERTEX_LOOP( '', #185 );
#140 = EDGE_LOOP( '', ( #186 ) );
#141 = EDGE_LOOP( '', ( #187 ) );
#142 = AXIS2_PLACEMENT_3D( '', #188, #189, #190 );
#143 = EDGE_LOOP( '', ( #191 ) );
#144 = EDGE_LOOP( '', ( #192 ) );
#145 = AXIS2_PLACEMENT_3D( '', #193, #194, #195 );
#146 = EDGE_LOOP( '', ( #196 ) );
#147 = EDGE_LOOP( '', ( #197 ) );
#148 = AXIS2_PLACEMENT_3D( '', #198, #199, #200 );
#149 = EDGE_LOOP( '', ( #201 ) );
#150 = EDGE_LOOP( '', ( #202 ) );
#151 = AXIS2_PLACEMENT_3D( '', #203, #204, #205 );
#152 = EDGE_LOOP( '', ( #206 ) );
#153 = EDGE_LOOP( '', ( #207 ) );
#154 = AXIS2_PLACEMENT_3D( '', #208, #209, #210 );
#155 = EDGE_LOOP( '', ( #211 ) );
#156 = EDGE_LOOP( '', ( #212 ) );
#157 = AXIS2_PLACEMENT_3D( '', #213, #214, #215 );
#158 = EDGE_LOOP( '', ( #216 ) );
#159 = EDGE_LOOP( '', ( #217 ) );
#160 = AXIS2_PLACEMENT_3D( '', #218, #219, #220 );
#161 = EDGE_LOOP( '', ( #221 ) );
#162 = EDGE_LOOP( '', ( #222 ) );
#163 = AXIS2_PLACEMENT_3D( '', #223, #224, #225 );
#164 = ORIENTED_EDGE( '', *, *, #226, .F. );
#165 = ORIENTED_EDGE( '', *, *, #227, .T. );
#166 = CARTESIAN_POINT( '', ( 46.0000000000000, 17.2500000000000, 0.000000000000000 ) );
#167 = DIRECTION( '', ( -1.00000000000000, 0.000000000000000, 0.000000000000000 ) );
#168 = DIRECTION( '', ( 0.000000000000000, 0.000000000000000, 1.00000000000000 ) );
#169 = VERTEX_POINT( '', #228 );
#170 = ORIENTED_EDGE( '', *, *, #229, .T. );
#171 = ORIENTED_EDGE( '', *, *, #227, .F. );
#172 = CARTESIAN_POINT( '', ( 45.0000000000000, 0.000000000000000, 0.000000000000000 ) );
#173 = DIRECTION( '', ( 1.00000000000000, 0.000000000000000, -0.000000000000000 ) );
#174 = DIRECTION( '', ( -0.000000000000000, 0.000000000000000, -1.00000000000000 ) );
#175 = ORIENTED_EDGE( '', *, *, #229, .F. );
#176 = ORIENTED_EDGE( '', *, *, #230, .T. );
#177 = CARTESIAN_POINT( '', ( 44.0000000000000, 16.2500000000000, 0.000000000000000 ) );
#178 = DIRECTION( '', ( 1.00000000000000, 0.000000000000000, -0.000000000000000 ) );
#179 = DIRECTION( '', ( -0.000000000000000, 0.000000000000000, -1.00000000000000 ) );
#180 = ORIENTED_EDGE( '', *, *, #231, .F. );
#181 = ORIENTED_EDGE( '', *, *, #232, .T. );
#182 = CARTESIAN_POINT( '', ( 0.000000000000000, 0.000000000000000, 0.000000000000000 ) );
#183 = DIRECTION( '', ( 1.00000000000000, 0.000000000000000, -0.000000000000000 ) );
#184 = DIRECTION( '', ( -0.000000000000000, 0.000000000000000, -1.00000000000000 ) );
#185 = VERTEX_POINT( '', #233 );
#186 = ORIENTED_EDGE( '', *, *, #231, .T. );
#187 = ORIENTED_EDGE( '', *, *, #234, .F. );
#188 = CARTESIAN_POINT( '', ( 1.00000000000000, 0.000000000000000, 0.000000000000000 ) );
#189 = DIRECTION( '', ( 1.00000000000000, 0.000000000000000, -0.000000000000000 ) );
#190 = DIRECTION( '', ( -0.000000000000000, 0.000000000000000, -1.00000000000000 ) );
#191 = ORIENTED_EDGE( '', *, *, #235, .T. );
#192 = ORIENTED_EDGE( '', *, *, #232, .F. );
#193 = CARTESIAN_POINT( '', ( 46.0000000000000, 0.000000000000000, 0.000000000000000 ) );
#194 = DIRECTION( '', ( -1.00000000000000, -0.000000000000000, 0.000000000000000 ) );
#195 = DIRECTION( '', ( -0.000000000000000, 0.000000000000000, -1.00000000000000 ) );
#196 = ORIENTED_EDGE( '', *, *, #236, .T. );
#197 = ORIENTED_EDGE( '', *, *, #235, .F. );
#198 = CARTESIAN_POINT( '', ( 4.60000000000000, 14.2500000000000, 0.000000000000000 ) );
#199 = DIRECTION( '', ( -1.00000000000000, 0.000000000000000, 0.000000000000000 ) );
#200 = DIRECTION( '', ( 0.000000000000000, 0.000000000000000, 1.00000000000000 ) );
#201 = ORIENTED_EDGE( '', *, *, #237, .T. );
#202 = ORIENTED_EDGE( '', *, *, #236, .F. );
#203 = CARTESIAN_POINT( '', ( 46.0000000000000, 0.000000000000000, 0.000000000000000 ) );
#204 = DIRECTION( '', ( -1.00000000000000, -0.000000000000000, 0.000000000000000 ) );
#205 = DIRECTION( '', ( -0.000000000000000, 0.000000000000000, -1.00000000000000 ) );
#206 = ORIENTED_EDGE( '', *, *, #238, .T. );
#207 = ORIENTED_EDGE( '', *, *, #237, .F. );
#208 = CARTESIAN_POINT( '', ( 41.4000000000000, 12.7500000000000, 0.000000000000000 ) );
#209 = DIRECTION( '', ( 1.00000000000000, 0.000000000000000, -0.000000000000000 ) );
#210 = DIRECTION( '', ( -0.000000000000000, 0.000000000000000, -1.00000000000000 ) );
#211 = ORIENTED_EDGE( '', *, *, #226, .T. );
#212 = ORIENTED_EDGE( '', *, *, #238, .F. );
#213 = CARTESIAN_POINT( '', ( 46.0000000000000, 0.000000000000000, 0.000000000000000 ) );
#214 = DIRECTION( '', ( -1.00000000000000, -0.000000000000000, 0.000000000000000 ) );
#215 = DIRECTION( '', ( -0.000000000000000, 0.000000000000000, -1.00000000000000 ) );
#216 = ORIENTED_EDGE( '', *, *, #239, .F. );
#217 = ORIENTED_EDGE( '', *, *, #234, .T. );
#218 = CARTESIAN_POINT( '', ( 2.00000000000000, 17.2500000000000, 0.000000000000000 ) );
#219 = DIRECTION( '', ( -1.00000000000000, 0.000000000000000, 0.000000000000000 ) );
#220 = DIRECTION( '', ( 0.000000000000000, 0.000000000000000, 1.00000000000000 ) );
#221 = ORIENTED_EDGE( '', *, *, #230, .F. );
#222 = ORIENTED_EDGE( '', *, *, #239, .T. );
#223 = CARTESIAN_POINT( '', ( 46.0000000000000, 0.000000000000000, 0.000000000000000 ) );
#224 = DIRECTION( '', ( -1.00000000000000, -0.000000000000000, 0.000000000000000 ) );
#225 = DIRECTION( '', ( -0.000000000000000, 0.000000000000000, -1.00000000000000 ) );
#226 = EDGE_CURVE( '', #240, #240, #241, .T. );
#227 = EDGE_CURVE( '', #242, #242, #243, .T. );
#228 = CARTESIAN_POINT( '', ( 45.0000000000000, 0.000000000000000, -18.2500000000000 ) );
#229 = EDGE_CURVE( '', #244, #244, #245, .T. );
#230 = EDGE_CURVE( '', #246, #246, #247, .T. );
#231 = EDGE_CURVE( '', #248, #248, #249, .T. );
#232 = EDGE_CURVE( '', #250, #250, #251, .T. );
#233 = CARTESIAN_POINT( '', ( 1.00000000000000, 0.000000000000000, -18.2500000000000 ) );
#234 = EDGE_CURVE( '', #252, #252, #253, .T. );
#235 = EDGE_CURVE( '', #254, #254, #255, .T. );
#236 = EDGE_CURVE( '', #256, #256, #257, .T. );
#237 = EDGE_CURVE( '', #258, #258, #259, .T. );
#238 = EDGE_CURVE( '', #260, #260, #261, .T. );
#239 = EDGE_CURVE( '', #262, #262, #263, .T. );
#240 = VERTEX_POINT( '', #264 );
#241 = CIRCLE( '', #265, 14.2500000000000 );
#242 = VERTEX_POINT( '', #266 );
#243 = CIRCLE( '', #267, 17.2500000000000 );
#244 = VERTEX_POINT( '', #268 );
#245 = CIRCLE( '', #269, 17.2500000000000 );
#246 = VERTEX_POINT( '', #270 );
#247 = CIRCLE( '', #271, 16.2500000000000 );
#248 = VERTEX_POINT( '', #272 );
#249 = CIRCLE( '', #273, 17.2500000000000 );
#250 = VERTEX_POINT( '', #274 );
#251 = CIRCLE( '', #275, 14.2500000000000 );
#252 = VERTEX_POINT( '', #276 );
#253 = CIRCLE( '', #277, 17.2500000000000 );
#254 = VERTEX_POINT( '', #278 );
#255 = CIRCLE( '', #279, 14.2500000000000 );
#256 = VERTEX_POINT( '', #280 );
#257 = CIRCLE( '', #281, 12.7500000000000 );
#258 = VERTEX_POINT( '', #282 );
#259 = CIRCLE( '', #283, 12.7500000000000 );
#260 = VERTEX_POINT( '', #284 );
#261 = CIRCLE( '', #285, 14.2500000000000 );
#262 = VERTEX_POINT( '', #286 );
#263 = CIRCLE( '', #287, 16.2500000000000 );
#264 = CARTESIAN_POINT( '', ( 46.0000000000000, 0.000000000000000, -14.2500000000000 ) );
#265 = AXIS2_PLACEMENT_3D( '', #288, #289, #290 );
#266 = CARTESIAN_POINT( '', ( 46.0000000000000, 0.000000000000000, -17.2500000000000 ) );
#267 = AXIS2_PLACEMENT_3D( '', #291, #292, #293 );
#268 = CARTESIAN_POINT( '', ( 44.0000000000000, 0.000000000000000, -17.2500000000000 ) );
#269 = AXIS2_PLACEMENT_3D( '', #294, #295, #296 );
#270 = CARTESIAN_POINT( '', ( 44.0000000000000, 0.000000000000000, -16.2500000000000 ) );
#271 = AXIS2_PLACEMENT_3D( '', #297, #298, #299 );
#272 = CARTESIAN_POINT( '', ( 0.000000000000000, 0.000000000000000, -17.2500000000000 ) );
#273 = AXIS2_PLACEMENT_3D( '', #300, #301, #302 );
#274 = CARTESIAN_POINT( '', ( 0.000000000000000, 0.000000000000000, -14.2500000000000 ) );
#275 = AXIS2_PLACEMENT_3D( '', #303, #304, #305 );
#276 = CARTESIAN_POINT( '', ( 2.00000000000000, 0.000000000000000, -17.2500000000000 ) );
#277 = AXIS2_PLACEMENT_3D( '', #306, #307, #308 );
#278 = CARTESIAN_POINT( '', ( 4.60000000000000, 0.000000000000000, -14.2500000000000 ) );
#279 = AXIS2_PLACEMENT_3D( '', #309, #310, #311 );
#280 = CARTESIAN_POINT( '', ( 4.60000000000000, 0.000000000000000, -12.7500000000000 ) );
#281 = AXIS2_PLACEMENT_3D( '', #312, #313, #314 );
#282 = CARTESIAN_POINT( '', ( 41.4000000000000, 0.000000000000000, -12.7500000000000 ) );
#283 = AXIS2_PLACEMENT_3D( '', #315, #316, #317 );
#284 = CARTESIAN_POINT( '', ( 41.4000000000000, 0.000000000000000, -14.2500000000000 ) );
#285 = AXIS2_PLACEMENT_3D( '', #318, #319, #320 );
#286 = CARTESIAN_POINT( '', ( 2.00000000000000, 0.000000000000000, -16.2500000000000 ) );
#287 = AXIS2_PLACEMENT_3D( '', #321, #322, #323 );
#288 = CARTESIAN_POINT( '', ( 46.0000000000000, 0.000000000000000, 0.000000000000000 ) );
#289 = DIRECTION( '', ( 1.00000000000000, 0.000000000000000, -0.000000000000000 ) );
#290 = DIRECTION( '', ( -0.000000000000000, 0.000000000000000, -1.00000000000000 ) );
#291 = CARTESIAN_POINT( '', ( 46.0000000000000, 0.000000000000000, 0.000000000000000 ) );
#292 = DIRECTION( '', ( 1.00000000000000, 0.000000000000000, -0.000000000000000 ) );
#293 = DIRECTION( '', ( -0.000000000000000, 0.000000000000000, -1.00000000000000 ) );
#294 = CARTESIAN_POINT( '', ( 44.0000000000000, 0.000000000000000, 0.000000000000000 ) );
#295 = DIRECTION( '', ( 1.00000000000000, 0.000000000000000, -0.000000000000000 ) );
#296 = DIRECTION( '', ( -0.000000000000000, 0.000000000000000, -1.00000000000000 ) );
#297 = CARTESIAN_POINT( '', ( 44.0000000000000, 0.000000000000000, 0.000000000000000 ) );
#298 = DIRECTION( '', ( 1.00000000000000, 0.000000000000000, -0.000000000000000 ) );
#299 = DIRECTION( '', ( -0.000000000000000, 0.000000000000000, -1.00000000000000 ) );
#300 = CARTESIAN_POINT( '', ( 0.000000000000000, 0.000000000000000, 0.000000000000000 ) );
#301 = DIRECTION( '', ( 1.00000000000000, 0.000000000000000, -0.000000000000000 ) );
#302 = DIRECTION( '', ( -0.000000000000000, 0.000000000000000, -1.00000000000000 ) );
#303 = CARTESIAN_POINT( '', ( 0.000000000000000, 0.000000000000000, 0.000000000000000 ) );
#304 = DIRECTION( '', ( 1.00000000000000, 0.000000000000000, -0.000000000000000 ) );
#305 = DIRECTION( '', ( -0.000000000000000, 0.000000000000000, -1.00000000000000 ) );
#306 = CARTESIAN_POINT( '', ( 2.00000000000000, 0.000000000000000, 0.000000000000000 ) );
#307 = DIRECTION( '', ( 1.00000000000000, 0.000000000000000, -0.000000000000000 ) );
#308 = DIRECTION( '', ( -0.000000000000000, 0.000000000000000, -1.00000000000000 ) );
#309 = CARTESIAN_POINT( '', ( 4.60000000000000, 0.000000000000000, 0.000000000000000 ) );
#310 = DIRECTION( '', ( 1.00000000000000, 0.000000000000000, -0.000000000000000 ) );
#311 = DIRECTION( '', ( -0.000000000000000, 0.000000000000000, -1.00000000000000 ) );
#312 = CARTESIAN_POINT( '', ( 4.60000000000000, 0.000000000000000, 0.000000000000000 ) );
#313 = DIRECTION( '', ( 1.00000000000000, 0.000000000000000, -0.000000000000000 ) );
#314 = DIRECTION( '', ( -0.000000000000000, 0.000000000000000, -1.00000000000000 ) );
#315 = CARTESIAN_POINT( '', ( 41.4000000000000, 0.000000000000000, 0.000000000000000 ) );
#316 = DIRECTION( '', ( 1.00000000000000, 0.000000000000000, -0.000000000000000 ) );
#317 = DIRECTION( '', ( -0.000000000000000, 0.000000000000000, -1.00000000000000 ) );
#318 = CARTESIAN_POINT( '', ( 41.4000000000000, 0.000000000000000, 0.000000000000000 ) );
#319 = DIRECTION( '', ( 1.00000000000000, 0.000000000000000, -0.000000000000000 ) );
#320 = DIRECTION( '', ( -0.000000000000000, 0.000000000000000, -1.00000000000000 ) );
#321 = CARTESIAN_POINT( '', ( 2.00000000000000, 0.000000000000000, 0.000000000000000 ) );
#322 = DIRECTION( '', ( 1.00000000000000, 0.000000000000000, -0.000000000000000 ) );
#323 = DIRECTION( '', ( -0.000000000000000, 0.000000000000000, -1.00000000000000 ) );
ENDSEC;
END-ISO-10303-21;
