ISO-10303-21;
HEADER;
/****************************************************************
 * Generated by software with PDElib inside                    *
 * PDElib Version v51a, created Wed 07/06/2011                  *
 * ITI Transcendata (http://www.transcendata.com/)              *
 ****************************************************************/
FILE_DESCRIPTION((''),'2;1');
FILE_NAME('K:\\Technische Zeihnungen\\F\S\|\S\_e Signals\S\dule\\Step Datei\\127223.stp','2019-10-01T13:14:12',('e.eickhoff'),(''),'Autodesk Inventor 2012','Autodesk Inventor 2012','');
FILE_SCHEMA(('AUTOMOTIVE_DESIGN { 1 0 10303 214 1 1 1 1 }'));
ENDSEC;
DATA;
#5=APPLICATION_CONTEXT('automotive design');
#6=APPLICATION_PROTOCOL_DEFINITION('International Standard','automotive_design',2001,#5);
#7=PRODUCT_CONTEXT('',#5,'mechanical');
#8=PRODUCT('127223','127223',$,(#7));
#9=PRODUCT_RELATED_PRODUCT_CATEGORY('part',$,(#8));
#10=PRODUCT_DEFINITION_FORMATION('',$,#8);
#11=PRODUCT_DEFINITION_CONTEXT('part definition',#5,'design');
#12=PRODUCT_DEFINITION('',$,#10,#11);
#18=(NAMED_UNIT(*)PLANE_ANGLE_UNIT()SI_UNIT($,.RADIAN.));
#19=DIMENSIONAL_EXPONENTS(0.0,0.0,0.0,0.0,0.0,0.0,0.0);
#20=PLANE_ANGLE_MEASURE_WITH_UNIT(PLANE_ANGLE_MEASURE(0.0174532925),#18);
#24=(CONVERSION_BASED_UNIT('DEGREE',#20)NAMED_UNIT(#19)PLANE_ANGLE_UNIT());
#28=(NAMED_UNIT(*)SI_UNIT($,.STERADIAN.)SOLID_ANGLE_UNIT());
#32=(LENGTH_UNIT()NAMED_UNIT(*)SI_UNIT(.MILLI.,.METRE.));
#34=UNCERTAINTY_MEASURE_WITH_UNIT(LENGTH_MEASURE(0.01),#32,'DISTANCE_ACCURACY_VALUE','');
#36=(GEOMETRIC_REPRESENTATION_CONTEXT(3)GLOBAL_UNCERTAINTY_ASSIGNED_CONTEXT((#34))GLOBAL_UNIT_ASSIGNED_CONTEXT((#24,#28,#32))REPRESENTATION_CONTEXT('None','None'));
#37=AXIS2_PLACEMENT_3D('',#38,#39,#40);
#38=CARTESIAN_POINT('',(0.0,0.0,0.0));
#39=DIRECTION('',(0.0,0.0,1.0));
#40=DIRECTION('',(1.0,0.0,0.0));
#41=SHAPE_REPRESENTATION('',(#37),#36);
#42=PRODUCT_DEFINITION_SHAPE('','',#12);
#43=SHAPE_DEFINITION_REPRESENTATION(#42,#41);
#49=(NAMED_UNIT(*)PLANE_ANGLE_UNIT()SI_UNIT($,.RADIAN.));
#50=DIMENSIONAL_EXPONENTS(0.0,0.0,0.0,0.0,0.0,0.0,0.0);
#51=PLANE_ANGLE_MEASURE_WITH_UNIT(PLANE_ANGLE_MEASURE(0.0174532925),#49);
#55=(CONVERSION_BASED_UNIT('DEGREE',#51)NAMED_UNIT(#50)PLANE_ANGLE_UNIT());
#59=(NAMED_UNIT(*)SI_UNIT($,.STERADIAN.)SOLID_ANGLE_UNIT());
#63=(LENGTH_UNIT()NAMED_UNIT(*)SI_UNIT(.MILLI.,.METRE.));
#65=UNCERTAINTY_MEASURE_WITH_UNIT(LENGTH_MEASURE(0.000001),#63,'DISTANCE_ACCURACY_VALUE','');
#67=(GEOMETRIC_REPRESENTATION_CONTEXT(3)GLOBAL_UNCERTAINTY_ASSIGNED_CONTEXT((#65))GLOBAL_UNIT_ASSIGNED_CONTEXT((#55,#59,#63))REPRESENTATION_CONTEXT('','3D'));
#68=CARTESIAN_POINT('',(0.0,0.0,2.0));
#69=DIRECTION('',(0.0,0.0,1.0));
#70=DIRECTION('',(1.0,0.0,0.0));
#71=AXIS2_PLACEMENT_3D('',#68,#69,#70);
#72=PLANE('',#71);
#73=CARTESIAN_POINT('',(32.5,3.980102E-015,2.0));
#74=VERTEX_POINT('',#73);
#75=CARTESIAN_POINT('',(0.0,0.0,2.0));
#76=DIRECTION('',(0.0,0.0,1.0));
#77=DIRECTION('',(-1.0,0.0,0.0));
#78=AXIS2_PLACEMENT_3D('',#75,#76,#77);
#79=CIRCLE('',#78,32.5);
#80=EDGE_CURVE('',#74,#74,#79,.T.);
#81=ORIENTED_EDGE('',*,*,#80,.F.);
#82=EDGE_LOOP('',(#81));
#83=FACE_OUTER_BOUND('',#82,.T.);
#84=CARTESIAN_POINT('',(-11.0,1.347111E-015,2.0));
#85=VERTEX_POINT('',#84);
#86=CARTESIAN_POINT('',(0.0,0.0,1.999999999999993));
#87=DIRECTION('',(0.0,0.0,-1.0));
#88=DIRECTION('',(-1.0,0.0,0.0));
#89=AXIS2_PLACEMENT_3D('',#86,#87,#88);
#90=CIRCLE('',#89,11.0);
#91=EDGE_CURVE('',#85,#85,#90,.T.);
#92=ORIENTED_EDGE('',*,*,#91,.F.);
#93=EDGE_LOOP('',(#92));
#94=FACE_BOUND('',#93,.T.);
#95=CARTESIAN_POINT('',(-3.250000000000002,25.250000000000004,2.0));
#96=VERTEX_POINT('',#95);
#97=CARTESIAN_POINT('',(0.0,25.250000000000004,2.0));
#98=DIRECTION('',(0.0,0.0,-1.0));
#99=DIRECTION('',(1.0,0.0,0.0));
#100=AXIS2_PLACEMENT_3D('',#97,#98,#99);
#101=CIRCLE('',#100,3.250000000000002);
#102=EDGE_CURVE('',#96,#96,#101,.T.);
#103=ORIENTED_EDGE('',*,*,#102,.F.);
#104=EDGE_LOOP('',(#103));
#105=FACE_BOUND('',#104,.T.);
#106=CARTESIAN_POINT('',(22.0,3.980102E-016,2.0));
#107=VERTEX_POINT('',#106);
#108=CARTESIAN_POINT('',(25.250000000000004,0.0,2.0));
#109=DIRECTION('',(0.0,0.0,-1.0));
#110=DIRECTION('',(1.0,0.0,0.0));
#111=AXIS2_PLACEMENT_3D('',#108,#109,#110);
#112=CIRCLE('',#111,3.250000000000002);
#113=EDGE_CURVE('',#107,#107,#112,.T.);
#114=ORIENTED_EDGE('',*,*,#113,.F.);
#115=EDGE_LOOP('',(#114));
#116=FACE_BOUND('',#115,.T.);
#117=CARTESIAN_POINT('',(-28.500000000000007,3.980102E-016,2.0));
#118=VERTEX_POINT('',#117);
#119=CARTESIAN_POINT('',(-25.250000000000004,0.0,2.0));
#120=DIRECTION('',(0.0,0.0,-1.0));
#121=DIRECTION('',(1.0,0.0,0.0));
#122=AXIS2_PLACEMENT_3D('',#119,#120,#121);
#123=CIRCLE('',#122,3.250000000000002);
#124=EDGE_CURVE('',#118,#118,#123,.T.);
#125=ORIENTED_EDGE('',*,*,#124,.F.);
#126=EDGE_LOOP('',(#125));
#127=FACE_BOUND('',#126,.T.);
#128=CARTESIAN_POINT('',(-3.250000000000002,-25.250000000000004,2.0));
#129=VERTEX_POINT('',#128);
#130=CARTESIAN_POINT('',(0.0,-25.250000000000004,2.0));
#131=DIRECTION('',(0.0,0.0,-1.0));
#132=DIRECTION('',(1.0,0.0,0.0));
#133=AXIS2_PLACEMENT_3D('',#130,#131,#132);
#134=CIRCLE('',#133,3.250000000000002);
#135=EDGE_CURVE('',#129,#129,#134,.T.);
#136=ORIENTED_EDGE('',*,*,#135,.F.);
#137=EDGE_LOOP('',(#136));
#138=FACE_BOUND('',#137,.T.);
#139=ADVANCED_FACE('',(#83,#94,#105,#116,#127,#138),#72,.F.);
#140=CARTESIAN_POINT('',(0.0,0.0,108.5));
#141=DIRECTION('',(0.0,0.0,-1.0));
#142=DIRECTION('',(-1.0,0.0,0.0));
#143=AXIS2_PLACEMENT_3D('',#140,#141,#142);
#144=CYLINDRICAL_SURFACE('',#143,11.0);
#145=ORIENTED_EDGE('',*,*,#91,.T.);
#146=EDGE_LOOP('',(#145));
#147=FACE_OUTER_BOUND('',#146,.T.);
#148=CARTESIAN_POINT('',(11.0,1.347111E-015,108.5));
#149=VERTEX_POINT('',#148);
#150=CARTESIAN_POINT('',(0.0,0.0,108.5));
#151=DIRECTION('',(0.0,0.0,-1.0));
#152=DIRECTION('',(-1.0,0.0,0.0));
#153=AXIS2_PLACEMENT_3D('',#150,#151,#152);
#154=CIRCLE('',#153,11.0);
#155=EDGE_CURVE('',#149,#149,#154,.T.);
#156=ORIENTED_EDGE('',*,*,#155,.F.);
#157=EDGE_LOOP('',(#156));
#158=FACE_BOUND('',#157,.T.);
#159=ADVANCED_FACE('',(#147,#158),#144,.F.);
#160=CARTESIAN_POINT('',(0.0,-25.250000000000004,0.0));
#161=DIRECTION('',(0.0,0.0,1.0));
#162=DIRECTION('',(1.0,0.0,0.0));
#163=AXIS2_PLACEMENT_3D('',#160,#161,#162);
#164=CYLINDRICAL_SURFACE('',#163,3.250000000000002);
#165=ORIENTED_EDGE('',*,*,#135,.T.);
#166=EDGE_LOOP('',(#165));
#167=FACE_OUTER_BOUND('',#166,.T.);
#168=CARTESIAN_POINT('',(1.526557E-015,-28.500000000000007,9.33964343741069));
#169=VERTEX_POINT('',#168);
#170=CARTESIAN_POINT('',(1.526557E-015,-28.500000000000007,9.33964343741069));
#171=CARTESIAN_POINT('',(-0.296972325432179,-28.500000000000007,9.33964343741069));
#172=CARTESIAN_POINT('',(-0.59228193588045,-28.45926825515205,9.350684893667223));
#173=CARTESIAN_POINT('',(-1.172448675283496,-28.296595477568701,9.396234251274162));
#174=CARTESIAN_POINT('',(-1.453021274031288,-28.172909220480214,9.431278221291372));
#175=CARTESIAN_POINT('',(-2.049335848386518,-27.803619890307651,9.541632595472724));
#176=CARTESIAN_POINT('',(-2.34231708235034,-27.536336426295325,9.624863199840855));
#177=CARTESIAN_POINT('',(-2.844431510206491,-26.881554641274398,9.849075513604449));
#178=CARTESIAN_POINT('',(-3.032270927449927,-26.49274171251551,9.992997756680907));
#179=CARTESIAN_POINT('',(-3.215527858774951,-25.804908104727907,10.27855977839984));
#180=CARTESIAN_POINT('',(-3.251278661934217,-25.518482755866732,10.405870121798351));
#181=CARTESIAN_POINT('',(-3.24884075643487,-24.992238743197369,10.657733457423031));
#182=CARTESIAN_POINT('',(-3.220563481539424,-24.752806031566035,10.779471073723805));
#183=CARTESIAN_POINT('',(-3.109869732621928,-24.272100196959553,11.038793914551325));
#184=CARTESIAN_POINT('',(-3.023809511962111,-24.032194887164042,11.176756838870709));
#185=CARTESIAN_POINT('',(-2.762009855417247,-23.504492934456948,11.498183261367799));
#186=CARTESIAN_POINT('',(-2.565613421115347,-23.225965424160336,11.682446176504456));
#187=CARTESIAN_POINT('',(-2.04327739535049,-22.690105584440868,12.059200015547018));
#188=CARTESIAN_POINT('',(-1.697424126821121,-22.444946243328843,12.248077126075906));
#189=CARTESIAN_POINT('',(-0.997178677940251,-22.139033542989807,12.492566821547385));
#190=CARTESIAN_POINT('',(-0.668235454288201,-22.050578271290611,12.566841770290555));
#191=CARTESIAN_POINT('',(0.010342755463989,-21.982790660557129,12.623657017130871));
#192=CARTESIAN_POINT('',(0.343646070081917,-22.001269245355704,12.607824780918699));
#193=CARTESIAN_POINT('',(1.050187206759763,-22.149658249338088,12.484689588773117));
#194=CARTESIAN_POINT('',(1.402906805499416,-22.295443003989117,12.364934221942693));
#195=CARTESIAN_POINT('',(2.090725740395606,-22.722758048393501,12.036758907604508));
#196=CARTESIAN_POINT('',(2.406109210116246,-23.024806900788548,11.817037684897871));
#197=CARTESIAN_POINT('',(2.818147742872466,-23.605473946721681,11.435656001455897));
#198=CARTESIAN_POINT('',(2.953295701306305,-23.862837239061918,11.276408543879695));
#199=CARTESIAN_POINT('',(3.134639786479647,-24.359102380018779,10.99062694421864));
#200=CARTESIAN_POINT('',(3.19223271090943,-24.593564885273707,10.863100499535154));
#201=CARTESIAN_POINT('',(3.255299758801994,-25.082185686749593,10.613021245896608));
#202=CARTESIAN_POINT('',(3.258933691461148,-25.336056701348191,10.491111906068284));
#203=CARTESIAN_POINT('',(3.197479727848634,-25.919077864733545,10.228159497087102));
#204=CARTESIAN_POINT('',(3.112505481934147,-26.245599588304241,10.093270818801351));
#205=CARTESIAN_POINT('',(2.806366657924646,-26.941980683319638,9.826134818744119));
#206=CARTESIAN_POINT('',(2.56202817550757,-27.296047587221999,9.704742616457388));
#207=CARTESIAN_POINT('',(1.950402532102584,-27.882450594346405,9.516272790599512));
#208=CARTESIAN_POINT('',(1.596642293516797,-28.111957857843496,9.449122586783641));
#209=CARTESIAN_POINT('',(0.82306346198093,-28.420878961311629,9.360888124762917));
#210=CARTESIAN_POINT('',(0.413803444055492,-28.500000000000007,9.339643437410691));
#211=CARTESIAN_POINT('',(1.665335E-015,-28.500000000000007,9.339643437410691));
#212=B_SPLINE_CURVE_WITH_KNOTS('',3,(#170,#171,#172,#173,#174,#175,#176,#177,#178,#179,#180,#181,#182,#183,#184,#185,#186,#187,#188,#189,#190,#191,#192,#193,#194,#195,#196,#197,#198,#199,#200,#201,#202,#203,#204,#205,#206,#207,#208,#209,#210,#211),.UNSPECIFIED.,.T.,.U.,(4,2,2,2,2,2,2,2,2,2,2,2,2,2,2,2,2,2,2,2,4),(-2.173264268626483,-2.084172570996829,-1.991995649528698,-1.871213153613786,-1.735761848423468,-1.641759721270593,-1.561295173715839,-1.475114320858141,-1.360579375920925,-1.224100718647012,-1.119458069873121,-1.01838691223815,-0.899292604089195,-0.755973103572718,-0.657659562224164,-0.576399241310905,-0.492497844097661,-0.384288630698918,-0.251237631881901,-0.124141033216647,0.0),.UNSPECIFIED.);
#213=EDGE_CURVE('',#169,#169,#212,.T.);
#214=ORIENTED_EDGE('',*,*,#213,.F.);
#215=EDGE_LOOP('',(#214));
#216=FACE_BOUND('',#215,.T.);
#217=ADVANCED_FACE('',(#167,#216),#164,.F.);
#218=CARTESIAN_POINT('',(-25.250000000000004,0.0,0.0));
#219=DIRECTION('',(0.0,0.0,1.0));
#220=DIRECTION('',(1.0,0.0,0.0));
#221=AXIS2_PLACEMENT_3D('',#218,#219,#220);
#222=CYLINDRICAL_SURFACE('',#221,3.250000000000002);
#223=ORIENTED_EDGE('',*,*,#124,.T.);
#224=EDGE_LOOP('',(#223));
#225=FACE_OUTER_BOUND('',#224,.T.);
#226=CARTESIAN_POINT('',(-28.500000000000007,3.400058E-015,9.33964343741069));
#227=VERTEX_POINT('',#226);
#228=CARTESIAN_POINT('',(-28.500000000000007,3.400058E-015,9.33964343741069));
#229=CARTESIAN_POINT('',(-28.500000000000007,0.296972325432178,9.33964343741069));
#230=CARTESIAN_POINT('',(-28.459268255152054,0.592281935880444,9.350684893667223));
#231=CARTESIAN_POINT('',(-28.29659547756869,1.172448675283531,9.396234251274164));
#232=CARTESIAN_POINT('',(-28.172909220480186,1.45302127403134,9.431278221291382));
#233=CARTESIAN_POINT('',(-27.803619890307637,2.049335848386527,9.541632595472729));
#234=CARTESIAN_POINT('',(-27.536336426295343,2.342317082350344,9.624863199840847));
#235=CARTESIAN_POINT('',(-26.881554641274363,2.844431510206523,9.849075513604461));
#236=CARTESIAN_POINT('',(-26.492741712515453,3.032270927449946,9.992997756680923));
#237=CARTESIAN_POINT('',(-25.804908104727872,3.21552785877496,10.278559778399853));
#238=CARTESIAN_POINT('',(-25.518482755866682,3.251278661934216,10.405870121798371));
#239=CARTESIAN_POINT('',(-24.992238743197369,3.248840756434867,10.657733457423028));
#240=CARTESIAN_POINT('',(-24.752806031566045,3.220563481539427,10.779471073723798));
#241=CARTESIAN_POINT('',(-24.272100196959524,3.109869732621921,11.03879391455134));
#242=CARTESIAN_POINT('',(-24.032194887164003,3.023809511962087,11.176756838870734));
#243=CARTESIAN_POINT('',(-23.50449293445697,2.762009855417253,11.498183261367787));
#244=CARTESIAN_POINT('',(-23.225965424160336,2.565613421115354,11.682446176504456));
#245=CARTESIAN_POINT('',(-22.69010558444085,2.043277395350469,12.059200015547036));
#246=CARTESIAN_POINT('',(-22.444946243328836,1.697424126821101,12.248077126075913));
#247=CARTESIAN_POINT('',(-22.139033542989782,0.997178677940193,12.492566821547403));
#248=CARTESIAN_POINT('',(-22.050578271290618,0.668235454288167,12.566841770290553));
#249=CARTESIAN_POINT('',(-21.982790660557143,-0.010342755463991,12.623657017130864));
#250=CARTESIAN_POINT('',(-22.001269245355708,-0.343646070081909,12.607824780918694));
#251=CARTESIAN_POINT('',(-22.149658249338092,-1.050187206759742,12.484689588773115));
#252=CARTESIAN_POINT('',(-22.295443003989085,-1.402906805499374,12.364934221942718));
#253=CARTESIAN_POINT('',(-22.722758048393512,-2.090725740395625,12.036758907604501));
#254=CARTESIAN_POINT('',(-23.024806900788583,-2.406109210116267,11.817037684897851));
#255=CARTESIAN_POINT('',(-23.605473946721677,-2.818147742872457,11.4356560014559));
#256=CARTESIAN_POINT('',(-23.862837239061889,-2.953295701306296,11.276408543879707));
#257=CARTESIAN_POINT('',(-24.359102380018783,-3.134639786479649,10.990626944218638));
#258=CARTESIAN_POINT('',(-24.593564885273707,-3.19223271090943,10.863100499535152));
#259=CARTESIAN_POINT('',(-25.082185686749586,-3.255299758801993,10.613021245896611));
#260=CARTESIAN_POINT('',(-25.336056701348188,-3.25893369146115,10.491111906068284));
#261=CARTESIAN_POINT('',(-25.919077864733548,-3.197479727848634,10.228159497087098));
#262=CARTESIAN_POINT('',(-26.245599588304241,-3.112505481934147,10.093270818801347));
#263=CARTESIAN_POINT('',(-26.941980683319603,-2.806366657924662,9.826134818744134));
#264=CARTESIAN_POINT('',(-27.296047587221992,-2.562028175507592,9.704742616457393));
#265=CARTESIAN_POINT('',(-27.882450594346455,-1.950402532102542,9.516272790599498));
#266=CARTESIAN_POINT('',(-28.111957857843507,-1.596642293516762,9.449122586783638));
#267=CARTESIAN_POINT('',(-28.420878961311615,-0.823063461980947,9.360888124762919));
#268=CARTESIAN_POINT('',(-28.500000000000007,-0.413803444055499,9.339643437410691));
#269=CARTESIAN_POINT('',(-28.500000000000007,3.608225E-015,9.339643437410691));
#270=B_SPLINE_CURVE_WITH_KNOTS('',3,(#228,#229,#230,#231,#232,#233,#234,#235,#236,#237,#238,#239,#240,#241,#242,#243,#244,#245,#246,#247,#248,#249,#250,#251,#252,#253,#254,#255,#256,#257,#258,#259,#260,#261,#262,#263,#264,#265,#266,#267,#268,#269),.UNSPECIFIED.,.T.,.U.,(4,2,2,2,2,2,2,2,2,2,2,2,2,2,2,2,2,2,2,2,4),(-2.173264268626587,-2.084172570996934,-1.991995649528804,-1.871213153613895,-1.735761848423594,-1.641759721270722,-1.561295173715962,-1.475114320858259,-1.360579375921029,-1.224100718647101,-1.119458069873183,-1.018386912238181,-0.899292604089202,-0.755973103572715,-0.657659562224152,-0.576399241310893,-0.492497844097651,-0.38428863069891,-0.251237631881907,-0.124141033216651,0.0),.UNSPECIFIED.);
#271=EDGE_CURVE('',#227,#227,#270,.T.);
#272=ORIENTED_EDGE('',*,*,#271,.F.);
#273=EDGE_LOOP('',(#272));
#274=FACE_BOUND('',#273,.T.);
#275=ADVANCED_FACE('',(#225,#274),#222,.F.);
#276=CARTESIAN_POINT('',(25.250000000000004,0.0,0.0));
#277=DIRECTION('',(0.0,0.0,1.0));
#278=DIRECTION('',(1.0,0.0,0.0));
#279=AXIS2_PLACEMENT_3D('',#276,#277,#278);
#280=CYLINDRICAL_SURFACE('',#279,3.250000000000002);
#281=ORIENTED_EDGE('',*,*,#113,.T.);
#282=EDGE_LOOP('',(#281));
#283=FACE_OUTER_BOUND('',#282,.T.);
#284=CARTESIAN_POINT('',(28.500000000000007,-3.469447E-016,9.33964343741069));
#285=VERTEX_POINT('',#284);
#286=CARTESIAN_POINT('',(28.500000000000007,-3.469447E-016,9.33964343741069));
#287=CARTESIAN_POINT('',(28.500000000000007,-0.296972325432181,9.33964343741069));
#288=CARTESIAN_POINT('',(28.45926825515205,-0.592281935880452,9.350684893667225));
#289=CARTESIAN_POINT('',(28.296595477568705,-1.172448675283483,9.39623425127416));
#290=CARTESIAN_POINT('',(28.172909220480232,-1.453021274031265,9.43127822129137));
#291=CARTESIAN_POINT('',(27.803619890307655,-2.04933584838652,9.541632595472724));
#292=CARTESIAN_POINT('',(27.536336426295314,-2.342317082350345,9.624863199840855));
#293=CARTESIAN_POINT('',(26.881554641274402,-2.844431510206489,9.849075513604447));
#294=CARTESIAN_POINT('',(26.49274171251551,-3.032270927449925,9.992997756680907));
#295=CARTESIAN_POINT('',(25.804908104727922,-3.215527858774947,10.278559778399835));
#296=CARTESIAN_POINT('',(25.518482755866749,-3.251278661934216,10.405870121798342));
#297=CARTESIAN_POINT('',(24.992238743197387,-3.24884075643487,10.657733457423024));
#298=CARTESIAN_POINT('',(24.752806031566049,-3.220563481539425,10.779471073723801));
#299=CARTESIAN_POINT('',(24.272100196959563,-3.109869732621932,11.03879391455132));
#300=CARTESIAN_POINT('',(24.032194887164053,-3.023809511962112,11.176756838870702));
#301=CARTESIAN_POINT('',(23.504492934456994,-2.762009855417272,11.498183261367767));
#302=CARTESIAN_POINT('',(23.225965424160364,-2.565613421115378,11.682446176504433));
#303=CARTESIAN_POINT('',(22.690105584440865,-2.043277395350497,12.059200015547018));
#304=CARTESIAN_POINT('',(22.444946243328854,-1.697424126821131,12.2480771260759));
#305=CARTESIAN_POINT('',(22.139033542989797,-0.997178677940235,12.49256682154739));
#306=CARTESIAN_POINT('',(22.050578271290622,-0.668235454288202,12.566841770290548));
#307=CARTESIAN_POINT('',(21.982790660557136,0.010342755463962,12.623657017130865));
#308=CARTESIAN_POINT('',(22.001269245355701,0.343646070081879,12.607824780918699));
#309=CARTESIAN_POINT('',(22.149658249338078,1.050187206759723,12.484689588773122));
#310=CARTESIAN_POINT('',(22.295443003989078,1.402906805499359,12.364934221942722));
#311=CARTESIAN_POINT('',(22.722758048393491,2.090725740395602,12.036758907604515));
#312=CARTESIAN_POINT('',(23.024806900788551,2.406109210116249,11.817037684897866));
#313=CARTESIAN_POINT('',(23.605473946721681,2.818147742872466,11.435656001455897));
#314=CARTESIAN_POINT('',(23.862837239061921,2.953295701306305,11.276408543879693));
#315=CARTESIAN_POINT('',(24.359102380018747,3.134639786479636,10.990626944218658));
#316=CARTESIAN_POINT('',(24.59356488527369,3.192232710909427,10.863100499535163));
#317=CARTESIAN_POINT('',(25.082185686749593,3.255299758801995,10.613021245896606));
#318=CARTESIAN_POINT('',(25.336056701348191,3.258933691461148,10.491111906068282));
#319=CARTESIAN_POINT('',(25.919077864733552,3.197479727848632,10.228159497087097));
#320=CARTESIAN_POINT('',(26.245599588304245,3.112505481934144,10.093270818801347));
#321=CARTESIAN_POINT('',(26.94198068331961,2.806366657924655,9.82613481874413));
#322=CARTESIAN_POINT('',(27.296047587221995,2.562028175507584,9.704742616457391));
#323=CARTESIAN_POINT('',(27.882450594346416,1.950402532102579,9.516272790599508));
#324=CARTESIAN_POINT('',(28.1119578578435,1.596642293516793,9.449122586783641));
#325=CARTESIAN_POINT('',(28.420878961311629,0.823063461980927,9.360888124762916));
#326=CARTESIAN_POINT('',(28.500000000000007,0.413803444055488,9.33964343741069));
#327=CARTESIAN_POINT('',(28.500000000000007,-2.775558E-016,9.33964343741069));
#328=B_SPLINE_CURVE_WITH_KNOTS('',3,(#286,#287,#288,#289,#290,#291,#292,#293,#294,#295,#296,#297,#298,#299,#300,#301,#302,#303,#304,#305,#306,#307,#308,#309,#310,#311,#312,#313,#314,#315,#316,#317,#318,#319,#320,#321,#322,#323,#324,#325,#326,#327),.UNSPECIFIED.,.T.,.U.,(4,2,2,2,2,2,2,2,2,2,2,2,2,2,2,2,2,2,2,2,4),(-2.17326426862647,-2.084172570996816,-1.991995649528689,-1.871213153613786,-1.73576184842347,-1.641759721270597,-1.561295173715843,-1.475114320858142,-1.360579375920932,-1.224100718647021,-1.119458069873118,-1.018386912238134,-0.899292604089176,-0.755973103572709,-0.657659562224154,-0.576399241310898,-0.492497844097655,-0.38428863069891,-0.251237631881898,-0.124141033216647,0.0),.UNSPECIFIED.);
#329=EDGE_CURVE('',#285,#285,#328,.T.);
#330=ORIENTED_EDGE('',*,*,#329,.F.);
#331=EDGE_LOOP('',(#330));
#332=FACE_BOUND('',#331,.T.);
#333=ADVANCED_FACE('',(#283,#332),#280,.F.);
#334=CARTESIAN_POINT('',(0.0,25.250000000000004,0.0));
#335=DIRECTION('',(0.0,0.0,1.0));
#336=DIRECTION('',(1.0,0.0,0.0));
#337=AXIS2_PLACEMENT_3D('',#334,#335,#336);
#338=CYLINDRICAL_SURFACE('',#337,3.250000000000002);
#339=ORIENTED_EDGE('',*,*,#102,.T.);
#340=EDGE_LOOP('',(#339));
#341=FACE_OUTER_BOUND('',#340,.T.);
#342=CARTESIAN_POINT('',(1.804112E-015,28.500000000000007,9.33964343741069));
#343=VERTEX_POINT('',#342);
#344=CARTESIAN_POINT('',(1.804112E-015,28.500000000000007,9.33964343741069));
#345=CARTESIAN_POINT('',(0.296972325432176,28.500000000000007,9.33964343741069));
#346=CARTESIAN_POINT('',(0.592281935880441,28.459268255152054,9.350684893667223));
#347=CARTESIAN_POINT('',(1.172448675283509,28.296595477568701,9.396234251274162));
#348=CARTESIAN_POINT('',(1.453021274031301,28.172909220480207,9.431278221291372));
#349=CARTESIAN_POINT('',(2.049335848386526,27.80361989030764,9.541632595472724));
#350=CARTESIAN_POINT('',(2.342317082350347,27.536336426295321,9.624863199840853));
#351=CARTESIAN_POINT('',(2.8444315102065,26.881554641274384,9.849075513604451));
#352=CARTESIAN_POINT('',(3.032270927449932,26.492741712515489,9.992997756680911));
#353=CARTESIAN_POINT('',(3.215527858774956,25.804908104727886,10.278559778399847));
#354=CARTESIAN_POINT('',(3.251278661934214,25.518482755866696,10.405870121798365));
#355=CARTESIAN_POINT('',(3.248840756434867,24.992238743197372,10.657733457423031));
#356=CARTESIAN_POINT('',(3.220563481539424,24.752806031566045,10.779471073723801));
#357=CARTESIAN_POINT('',(3.109869732621926,24.272100196959549,11.038793914551325));
#358=CARTESIAN_POINT('',(3.023809511962107,24.032194887164039,11.176756838870713));
#359=CARTESIAN_POINT('',(2.762009855417257,23.50449293445697,11.498183261367785));
#360=CARTESIAN_POINT('',(2.565613421115359,23.225965424160343,11.682446176504445));
#361=CARTESIAN_POINT('',(2.043277395350495,22.690105584440872,12.059200015547011));
#362=CARTESIAN_POINT('',(1.697424126821125,22.444946243328843,12.248077126075906));
#363=CARTESIAN_POINT('',(0.99717867794025,22.1390335429898,12.492566821547385));
#364=CARTESIAN_POINT('',(0.668235454288202,22.050578271290611,12.566841770290559));
#365=CARTESIAN_POINT('',(-0.010342755463989,21.982790660557129,12.623657017130871));
#366=CARTESIAN_POINT('',(-0.343646070081918,22.001269245355704,12.607824780918698));
#367=CARTESIAN_POINT('',(-1.050187206759764,22.149658249338088,12.484689588773117));
#368=CARTESIAN_POINT('',(-1.402906805499417,22.295443003989121,12.364934221942692));
#369=CARTESIAN_POINT('',(-2.090725740395599,22.722758048393501,12.03675890760451));
#370=CARTESIAN_POINT('',(-2.406109210116239,23.024806900788533,11.81703768489788));
#371=CARTESIAN_POINT('',(-2.818147742872479,23.605473946721702,11.435656001455888));
#372=CARTESIAN_POINT('',(-2.953295701306315,23.862837239061953,11.276408543879676));
#373=CARTESIAN_POINT('',(-3.134639786479629,24.35910238001874,10.990626944218661));
#374=CARTESIAN_POINT('',(-3.192232710909428,24.593564885273686,10.863100499535165));
#375=CARTESIAN_POINT('',(-3.255299758801999,25.082185686749618,10.613021245896594));
#376=CARTESIAN_POINT('',(-3.258933691461147,25.336056701348213,10.491111906068278));
#377=CARTESIAN_POINT('',(-3.197479727848634,25.919077864733527,10.228159497087111));
#378=CARTESIAN_POINT('',(-3.112505481934153,26.245599588304241,10.093270818801347));
#379=CARTESIAN_POINT('',(-2.806366657924652,26.941980683319624,9.826134818744126));
#380=CARTESIAN_POINT('',(-2.562028175507581,27.296047587222002,9.70474261645739));
#381=CARTESIAN_POINT('',(-1.950402532102542,27.882450594346455,9.5162727905995));
#382=CARTESIAN_POINT('',(-1.596642293516763,28.111957857843507,9.449122586783638));
#383=CARTESIAN_POINT('',(-0.823063461980947,28.420878961311615,9.360888124762919));
#384=CARTESIAN_POINT('',(-0.413803444055499,28.500000000000007,9.339643437410691));
#385=CARTESIAN_POINT('',(1.526557E-015,28.500000000000007,9.339643437410691));
#386=B_SPLINE_CURVE_WITH_KNOTS('',3,(#344,#345,#346,#347,#348,#349,#350,#351,#352,#353,#354,#355,#356,#357,#358,#359,#360,#361,#362,#363,#364,#365,#366,#367,#368,#369,#370,#371,#372,#373,#374,#375,#376,#377,#378,#379,#380,#381,#382,#383,#384,#385),.UNSPECIFIED.,.T.,.U.,(4,2,2,2,2,2,2,2,2,2,2,2,2,2,2,2,2,2,2,2,4),(-2.173264268626447,-2.084172570996795,-1.991995649528672,-1.871213153613769,-1.735761848423459,-1.641759721270586,-1.561295173715824,-1.475114320858121,-1.360579375920905,-1.224100718646997,-1.119458069873109,-1.01838691223814,-0.899292604089184,-0.755973103572706,-0.657659562224148,-0.57639924131089,-0.492497844097644,-0.384288630698904,-0.251237631881905,-0.12414103321665,0.0),.UNSPECIFIED.);
#387=EDGE_CURVE('',#343,#343,#386,.T.);
#388=ORIENTED_EDGE('',*,*,#387,.F.);
#389=EDGE_LOOP('',(#388));
#390=FACE_BOUND('',#389,.T.);
#391=ADVANCED_FACE('',(#341,#390),#338,.F.);
#392=CARTESIAN_POINT('',(0.0,0.0,30.357492994394395));
#393=DIRECTION('',(0.0,0.0,-1.0));
#394=DIRECTION('',(1.0,0.0,0.0));
#395=AXIS2_PLACEMENT_3D('',#392,#393,#394);
#396=TOROIDAL_SURFACE('',#395,35.0,22.0);
#397=ORIENTED_EDGE('',*,*,#213,.T.);
#398=EDGE_LOOP('',(#397));
#399=FACE_OUTER_BOUND('',#398,.T.);
#400=ORIENTED_EDGE('',*,*,#271,.T.);
#401=EDGE_LOOP('',(#400));
#402=FACE_BOUND('',#401,.T.);
#403=ORIENTED_EDGE('',*,*,#329,.T.);
#404=EDGE_LOOP('',(#403));
#405=FACE_BOUND('',#404,.T.);
#406=ORIENTED_EDGE('',*,*,#387,.T.);
#407=EDGE_LOOP('',(#406));
#408=FACE_BOUND('',#407,.T.);
#409=CARTESIAN_POINT('',(-12.999999999999998,1.592041E-015,30.357492994394399));
#410=VERTEX_POINT('',#409);
#411=CARTESIAN_POINT('',(0.0,0.0,30.357492994394399));
#412=DIRECTION('',(0.0,0.0,-1.0));
#413=DIRECTION('',(1.0,0.0,0.0));
#414=AXIS2_PLACEMENT_3D('',#411,#412,#413);
#415=CIRCLE('',#414,12.999999999999998);
#416=EDGE_CURVE('',#410,#410,#415,.T.);
#417=ORIENTED_EDGE('',*,*,#416,.T.);
#418=EDGE_LOOP('',(#417));
#419=FACE_BOUND('',#418,.T.);
#420=CARTESIAN_POINT('',(32.5,3.980102E-015,8.5));
#421=VERTEX_POINT('',#420);
#422=CARTESIAN_POINT('',(0.0,0.0,8.5));
#423=DIRECTION('',(0.0,0.0,-1.0));
#424=DIRECTION('',(-1.0,0.0,0.0));
#425=AXIS2_PLACEMENT_3D('',#422,#423,#424);
#426=CIRCLE('',#425,32.5);
#427=EDGE_CURVE('',#421,#421,#426,.T.);
#428=ORIENTED_EDGE('',*,*,#427,.F.);
#429=EDGE_LOOP('',(#428));
#430=FACE_BOUND('',#429,.T.);
#431=ADVANCED_FACE('',(#399,#402,#405,#408,#419,#430),#396,.F.);
#432=CARTESIAN_POINT('',(0.0,0.0,8.5));
#433=DIRECTION('',(0.0,0.0,1.0));
#434=DIRECTION('',(-1.0,0.0,0.0));
#435=AXIS2_PLACEMENT_3D('',#432,#433,#434);
#436=CYLINDRICAL_SURFACE('',#435,13.0);
#437=CARTESIAN_POINT('',(13.0,1.592041E-015,108.5));
#438=VERTEX_POINT('',#437);
#439=CARTESIAN_POINT('',(0.0,0.0,108.5));
#440=DIRECTION('',(0.0,0.0,-1.0));
#441=DIRECTION('',(-1.0,0.0,0.0));
#442=AXIS2_PLACEMENT_3D('',#439,#440,#441);
#443=CIRCLE('',#442,13.0);
#444=EDGE_CURVE('',#438,#438,#443,.T.);
#445=ORIENTED_EDGE('',*,*,#444,.T.);
#446=EDGE_LOOP('',(#445));
#447=FACE_OUTER_BOUND('',#446,.T.);
#448=ORIENTED_EDGE('',*,*,#416,.F.);
#449=EDGE_LOOP('',(#448));
#450=FACE_BOUND('',#449,.T.);
#451=ADVANCED_FACE('',(#447,#450),#436,.T.);
#452=CARTESIAN_POINT('',(0.0,0.0,108.5));
#453=DIRECTION('',(0.0,0.0,-1.0));
#454=DIRECTION('',(-1.0,0.0,0.0));
#455=AXIS2_PLACEMENT_3D('',#452,#453,#454);
#456=PLANE('',#455);
#457=ORIENTED_EDGE('',*,*,#444,.F.);
#458=EDGE_LOOP('',(#457));
#459=FACE_OUTER_BOUND('',#458,.T.);
#460=ORIENTED_EDGE('',*,*,#155,.T.);
#461=EDGE_LOOP('',(#460));
#462=FACE_BOUND('',#461,.T.);
#463=ADVANCED_FACE('',(#459,#462),#456,.F.);
#464=CARTESIAN_POINT('',(0.0,0.0,0.0));
#465=DIRECTION('',(0.0,0.0,1.0));
#466=DIRECTION('',(-1.0,0.0,0.0));
#467=AXIS2_PLACEMENT_3D('',#464,#465,#466);
#468=CYLINDRICAL_SURFACE('',#467,32.5);
#469=ORIENTED_EDGE('',*,*,#80,.T.);
#470=EDGE_LOOP('',(#469));
#471=FACE_OUTER_BOUND('',#470,.T.);
#472=ORIENTED_EDGE('',*,*,#427,.T.);
#473=EDGE_LOOP('',(#472));
#474=FACE_BOUND('',#473,.T.);
#475=ADVANCED_FACE('',(#471,#474),#468,.T.);
#476=CLOSED_SHELL('',(#139,#159,#217,#275,#333,#391,#431,#451,#463,#475));
#477=MANIFOLD_SOLID_BREP('Volumenk\S\vrper1',#476);
#478=COLOUR_RGB('',0.0,0.0,0.0);
#479=FILL_AREA_STYLE_COLOUR('',#478);
#480=FILL_AREA_STYLE('',(#479));
#481=SURFACE_STYLE_FILL_AREA(#480);
#482=SURFACE_SIDE_STYLE('',(#481));
#483=SURFACE_STYLE_USAGE(.BOTH.,#482);
#484=PRESENTATION_STYLE_ASSIGNMENT((#483));
#485=STYLED_ITEM('',(#484),#139);
#486=STYLED_ITEM('',(#484),#159);
#487=STYLED_ITEM('',(#484),#217);
#488=STYLED_ITEM('',(#484),#275);
#489=STYLED_ITEM('',(#484),#333);
#490=STYLED_ITEM('',(#484),#391);
#491=STYLED_ITEM('',(#484),#431);
#492=STYLED_ITEM('',(#484),#451);
#493=STYLED_ITEM('',(#484),#463);
#494=STYLED_ITEM('',(#484),#475);
#495=MECHANICAL_DESIGN_GEOMETRIC_PRESENTATION_REPRESENTATION('',(#485,#486,#487,#488,#489,#490,#491,#492,#493,#494,#503),#67);
#496=COLOUR_RGB('Standard',0.752941012382507,0.752941012382507,0.752941012382507);
#497=FILL_AREA_STYLE_COLOUR('Standard',#496);
#498=FILL_AREA_STYLE('Standard',(#497));
#499=SURFACE_STYLE_FILL_AREA(#498);
#500=SURFACE_SIDE_STYLE('Standard',(#499));
#501=SURFACE_STYLE_USAGE(.BOTH.,#500);
#502=PRESENTATION_STYLE_ASSIGNMENT((#501));
#503=STYLED_ITEM('',(#502),#477);
#504=ADVANCED_BREP_SHAPE_REPRESENTATION('ABSR',(#477),#36);
#505=SHAPE_REPRESENTATION_RELATIONSHIP('SRR','None',#504,#41);
ENDSEC;
END-ISO-10303-21;
