ISO-10303-21;
HEADER;
/* Generated by software containing ST-Developer
 * from STEP Tools, Inc. (www.steptools.com) 
 */

FILE_DESCRIPTION(
/* description */ (''),
/* implementation_level */ '2;1');

FILE_NAME(
/* name */ 
'H:\\KE\\3D-Zeichnungen vereinfacht f\X\FCr Kunden.ipt\\LD9\\LD9_ipt.s
tp',
/* time_stamp */ '2017-02-20T12:11:37+01:00',
/* author */ ('ahoffmann'),
/* organization */ (''),
/* preprocessor_version */ 'ST-DEVELOPER v16.1',
/* originating_system */ 'Autodesk Inventor 2016',
/* authorisation */ '');

FILE_SCHEMA (('AUTOMOTIVE_DESIGN { 1 0 10303 214 3 1 1 }'));
ENDSEC;

DATA;
#10=MECHANICAL_DESIGN_GEOMETRIC_PRESENTATION_REPRESENTATION('',(#135,#136,
#137,#138,#139,#140),#334);
#11=SHAPE_REPRESENTATION_RELATIONSHIP('SRR','None',#343,#12);
#12=ADVANCED_BREP_SHAPE_REPRESENTATION('',(#13),#333);
#13=MANIFOLD_SOLID_BREP('Volumenk\X\F6rper1',#154);
#14=CONICAL_SURFACE('',#173,3.15,30.);
#15=TOROIDAL_SURFACE('',#164,4.1,0.5);
#16=PLANE('',#162);
#17=PLANE('',#163);
#18=PLANE('',#169);
#19=PLANE('',#174);
#20=PLANE('',#178);
#21=FACE_BOUND('',#53,.T.);
#22=FACE_BOUND('',#55,.T.);
#23=FACE_BOUND('',#59,.T.);
#24=FACE_BOUND('',#61,.T.);
#25=FACE_BOUND('',#62,.T.);
#26=FACE_BOUND('',#63,.T.);
#27=FACE_BOUND('',#65,.T.);
#28=FACE_BOUND('',#68,.T.);
#29=FACE_BOUND('',#70,.T.);
#30=FACE_BOUND('',#72,.T.);
#31=FACE_BOUND('',#74,.T.);
#32=B_SPLINE_CURVE_WITH_KNOTS('',3,(#235,#236,#237,#238,#239,#240,#241,
#242,#243,#244,#245,#246,#247,#248,#249,#250,#251,#252,#253,#254,#255,#256,
#257,#258,#259,#260,#261,#262,#263,#264,#265,#266,#267,#268),
 .UNSPECIFIED.,.T.,.F.,(4,2,2,2,2,2,2,2,2,2,2,2,2,2,2,2,4),(0.,0.0302015132647651,
0.0604030265295303,0.0906035811898187,0.120804135850107,0.151004690510395,
0.181205245170684,0.211406758435449,0.241608271700214,0.271809784964979,
0.302011298229744,0.332211852890033,0.362412407550321,0.39261296221061,
0.422813516870898,0.453015030135663,0.483216543400428),.UNSPECIFIED.);
#33=B_SPLINE_CURVE_WITH_KNOTS('',3,(#273,#274,#275,#276,#277,#278,#279,
#280,#281,#282,#283,#284,#285,#286,#287,#288,#289,#290,#291,#292,#293,#294,
#295,#296,#297,#298,#299,#300,#301,#302,#303,#304,#305,#306),
 .UNSPECIFIED.,.T.,.F.,(4,2,2,2,2,2,2,2,2,2,2,2,2,2,2,2,4),(0.,0.0302015132647651,
0.0604030265295303,0.0906035811898187,0.120804135850107,0.151004690510395,
0.181205245170684,0.211406758435449,0.241608271700214,0.271809784964979,
0.302011298229744,0.332211852890033,0.362412407550321,0.39261296221061,
0.422813516870898,0.453015030135663,0.483216543400428),.UNSPECIFIED.);
#34=CYLINDRICAL_SURFACE('',#158,0.8);
#35=CYLINDRICAL_SURFACE('',#160,0.8);
#36=CYLINDRICAL_SURFACE('',#167,4.6);
#37=CYLINDRICAL_SURFACE('',#176,4.85);
#38=FACE_OUTER_BOUND('',#51,.T.);
#39=FACE_OUTER_BOUND('',#52,.T.);
#40=FACE_OUTER_BOUND('',#54,.T.);
#41=FACE_OUTER_BOUND('',#56,.T.);
#42=FACE_OUTER_BOUND('',#57,.T.);
#43=FACE_OUTER_BOUND('',#58,.T.);
#44=FACE_OUTER_BOUND('',#60,.T.);
#45=FACE_OUTER_BOUND('',#64,.T.);
#46=FACE_OUTER_BOUND('',#66,.T.);
#47=FACE_OUTER_BOUND('',#67,.T.);
#48=FACE_OUTER_BOUND('',#69,.T.);
#49=FACE_OUTER_BOUND('',#71,.T.);
#50=FACE_OUTER_BOUND('',#73,.T.);
#51=EDGE_LOOP('',(#109));
#52=EDGE_LOOP('',(#110));
#53=EDGE_LOOP('',(#111));
#54=EDGE_LOOP('',(#112));
#55=EDGE_LOOP('',(#113));
#56=EDGE_LOOP('',(#114));
#57=EDGE_LOOP('',(#115));
#58=EDGE_LOOP('',(#116));
#59=EDGE_LOOP('',(#117));
#60=EDGE_LOOP('',(#118));
#61=EDGE_LOOP('',(#119));
#62=EDGE_LOOP('',(#120));
#63=EDGE_LOOP('',(#121));
#64=EDGE_LOOP('',(#122));
#65=EDGE_LOOP('',(#123));
#66=EDGE_LOOP('',(#124));
#67=EDGE_LOOP('',(#125));
#68=EDGE_LOOP('',(#126));
#69=EDGE_LOOP('',(#127));
#70=EDGE_LOOP('',(#128));
#71=EDGE_LOOP('',(#129));
#72=EDGE_LOOP('',(#130));
#73=EDGE_LOOP('',(#131));
#74=EDGE_LOOP('',(#132));
#75=CIRCLE('',#157,1.46969384566991);
#76=CIRCLE('',#159,0.8);
#77=CIRCLE('',#161,0.8);
#78=CIRCLE('',#165,4.6);
#79=CIRCLE('',#166,4.1);
#80=CIRCLE('',#168,4.6);
#81=CIRCLE('',#170,3.15);
#82=CIRCLE('',#172,1.99529946162075);
#83=CIRCLE('',#175,4.85);
#84=CIRCLE('',#177,4.85);
#85=VERTEX_POINT('',#229);
#86=VERTEX_POINT('',#232);
#87=VERTEX_POINT('',#234);
#88=VERTEX_POINT('',#270);
#89=VERTEX_POINT('',#272);
#90=VERTEX_POINT('',#310);
#91=VERTEX_POINT('',#312);
#92=VERTEX_POINT('',#315);
#93=VERTEX_POINT('',#318);
#94=VERTEX_POINT('',#321);
#95=VERTEX_POINT('',#325);
#96=VERTEX_POINT('',#328);
#97=EDGE_CURVE('',#85,#85,#75,.T.);
#98=EDGE_CURVE('',#86,#86,#76,.T.);
#99=EDGE_CURVE('',#87,#87,#32,.T.);
#100=EDGE_CURVE('',#88,#88,#77,.T.);
#101=EDGE_CURVE('',#89,#89,#33,.T.);
#102=EDGE_CURVE('',#90,#90,#78,.T.);
#103=EDGE_CURVE('',#91,#91,#79,.T.);
#104=EDGE_CURVE('',#92,#92,#80,.T.);
#105=EDGE_CURVE('',#93,#93,#81,.T.);
#106=EDGE_CURVE('',#94,#94,#82,.T.);
#107=EDGE_CURVE('',#95,#95,#83,.T.);
#108=EDGE_CURVE('',#96,#96,#84,.T.);
#109=ORIENTED_EDGE('',*,*,#97,.F.);
#110=ORIENTED_EDGE('',*,*,#98,.T.);
#111=ORIENTED_EDGE('',*,*,#99,.F.);
#112=ORIENTED_EDGE('',*,*,#100,.T.);
#113=ORIENTED_EDGE('',*,*,#101,.F.);
#114=ORIENTED_EDGE('',*,*,#98,.F.);
#115=ORIENTED_EDGE('',*,*,#100,.F.);
#116=ORIENTED_EDGE('',*,*,#102,.T.);
#117=ORIENTED_EDGE('',*,*,#103,.T.);
#118=ORIENTED_EDGE('',*,*,#104,.T.);
#119=ORIENTED_EDGE('',*,*,#101,.T.);
#120=ORIENTED_EDGE('',*,*,#99,.T.);
#121=ORIENTED_EDGE('',*,*,#102,.F.);
#122=ORIENTED_EDGE('',*,*,#103,.F.);
#123=ORIENTED_EDGE('',*,*,#105,.T.);
#124=ORIENTED_EDGE('',*,*,#106,.F.);
#125=ORIENTED_EDGE('',*,*,#106,.T.);
#126=ORIENTED_EDGE('',*,*,#105,.F.);
#127=ORIENTED_EDGE('',*,*,#107,.T.);
#128=ORIENTED_EDGE('',*,*,#104,.F.);
#129=ORIENTED_EDGE('',*,*,#108,.T.);
#130=ORIENTED_EDGE('',*,*,#107,.F.);
#131=ORIENTED_EDGE('',*,*,#108,.F.);
#132=ORIENTED_EDGE('',*,*,#97,.T.);
#133=SPHERICAL_SURFACE('',#156,1.5);
#134=SPHERICAL_SURFACE('',#171,1.99529946162075);
#135=STYLED_ITEM('',(#353),#141);
#136=STYLED_ITEM('',(#355),#150);
#137=STYLED_ITEM('',(#354),#151);
#138=STYLED_ITEM('',(#354),#152);
#139=STYLED_ITEM('',(#354),#153);
#140=STYLED_ITEM('',(#352),#13);
#141=ADVANCED_FACE('',(#38),#133,.T.);
#142=ADVANCED_FACE('',(#39,#21),#34,.T.);
#143=ADVANCED_FACE('',(#40,#22),#35,.T.);
#144=ADVANCED_FACE('',(#41),#16,.T.);
#145=ADVANCED_FACE('',(#42),#17,.F.);
#146=ADVANCED_FACE('',(#43,#23),#15,.T.);
#147=ADVANCED_FACE('',(#44,#24,#25,#26),#36,.T.);
#148=ADVANCED_FACE('',(#45,#27),#18,.T.);
#149=ADVANCED_FACE('',(#46),#134,.T.);
#150=ADVANCED_FACE('',(#47,#28),#14,.T.);
#151=ADVANCED_FACE('',(#48,#29),#19,.T.);
#152=ADVANCED_FACE('',(#49,#30),#37,.T.);
#153=ADVANCED_FACE('',(#50,#31),#20,.F.);
#154=CLOSED_SHELL('',(#141,#142,#143,#144,#145,#146,#147,#148,#149,#150,
#151,#152,#153));
#155=AXIS2_PLACEMENT_3D('placement',#227,#179,#180);
#156=AXIS2_PLACEMENT_3D('',#228,#181,#182);
#157=AXIS2_PLACEMENT_3D('',#230,#183,#184);
#158=AXIS2_PLACEMENT_3D('',#231,#185,#186);
#159=AXIS2_PLACEMENT_3D('',#233,#187,#188);
#160=AXIS2_PLACEMENT_3D('',#269,#189,#190);
#161=AXIS2_PLACEMENT_3D('',#271,#191,#192);
#162=AXIS2_PLACEMENT_3D('',#307,#193,#194);
#163=AXIS2_PLACEMENT_3D('',#308,#195,#196);
#164=AXIS2_PLACEMENT_3D('',#309,#197,#198);
#165=AXIS2_PLACEMENT_3D('',#311,#199,#200);
#166=AXIS2_PLACEMENT_3D('',#313,#201,#202);
#167=AXIS2_PLACEMENT_3D('',#314,#203,#204);
#168=AXIS2_PLACEMENT_3D('',#316,#205,#206);
#169=AXIS2_PLACEMENT_3D('',#317,#207,#208);
#170=AXIS2_PLACEMENT_3D('',#319,#209,#210);
#171=AXIS2_PLACEMENT_3D('',#320,#211,#212);
#172=AXIS2_PLACEMENT_3D('',#322,#213,#214);
#173=AXIS2_PLACEMENT_3D('',#323,#215,#216);
#174=AXIS2_PLACEMENT_3D('',#324,#217,#218);
#175=AXIS2_PLACEMENT_3D('',#326,#219,#220);
#176=AXIS2_PLACEMENT_3D('',#327,#221,#222);
#177=AXIS2_PLACEMENT_3D('',#329,#223,#224);
#178=AXIS2_PLACEMENT_3D('',#330,#225,#226);
#179=DIRECTION('axis',(0.,0.,1.));
#180=DIRECTION('refdir',(1.,0.,0.));
#181=DIRECTION('center_axis',(6.12323399573676E-17,0.,1.));
#182=DIRECTION('ref_axis',(1.,0.,0.));
#183=DIRECTION('center_axis',(0.,0.,-1.));
#184=DIRECTION('ref_axis',(0.,1.,0.));
#185=DIRECTION('center_axis',(-1.,0.,0.));
#186=DIRECTION('ref_axis',(0.,-1.,0.));
#187=DIRECTION('center_axis',(-1.,0.,0.));
#188=DIRECTION('ref_axis',(0.,-1.,0.));
#189=DIRECTION('center_axis',(-1.,0.,0.));
#190=DIRECTION('ref_axis',(0.,-1.,0.));
#191=DIRECTION('center_axis',(1.,0.,0.));
#192=DIRECTION('ref_axis',(0.,-1.,0.));
#193=DIRECTION('center_axis',(1.,0.,0.));
#194=DIRECTION('ref_axis',(0.,0.,-1.));
#195=DIRECTION('center_axis',(1.,0.,0.));
#196=DIRECTION('ref_axis',(0.,0.,-1.));
#197=DIRECTION('center_axis',(0.,0.,-1.));
#198=DIRECTION('ref_axis',(-1.,0.,0.));
#199=DIRECTION('center_axis',(0.,0.,-1.));
#200=DIRECTION('ref_axis',(-1.,0.,0.));
#201=DIRECTION('center_axis',(0.,0.,1.));
#202=DIRECTION('ref_axis',(-1.,0.,0.));
#203=DIRECTION('center_axis',(0.,0.,1.));
#204=DIRECTION('ref_axis',(-1.,0.,0.));
#205=DIRECTION('center_axis',(0.,0.,-1.));
#206=DIRECTION('ref_axis',(-1.,0.,0.));
#207=DIRECTION('center_axis',(0.,0.,-1.));
#208=DIRECTION('ref_axis',(-1.,0.,0.));
#209=DIRECTION('center_axis',(0.,0.,1.));
#210=DIRECTION('ref_axis',(1.,0.,0.));
#211=DIRECTION('center_axis',(6.12323399573677E-17,0.,1.));
#212=DIRECTION('ref_axis',(1.,0.,0.));
#213=DIRECTION('center_axis',(0.,0.,1.));
#214=DIRECTION('ref_axis',(1.,0.,0.));
#215=DIRECTION('center_axis',(0.,0.,1.));
#216=DIRECTION('ref_axis',(1.,0.,0.));
#217=DIRECTION('center_axis',(0.,0.,-1.));
#218=DIRECTION('ref_axis',(-1.,0.,0.));
#219=DIRECTION('center_axis',(0.,0.,-1.));
#220=DIRECTION('ref_axis',(-1.,0.,0.));
#221=DIRECTION('center_axis',(0.,0.,1.));
#222=DIRECTION('ref_axis',(-1.,0.,0.));
#223=DIRECTION('center_axis',(0.,0.,-1.));
#224=DIRECTION('ref_axis',(-1.,0.,0.));
#225=DIRECTION('center_axis',(0.,0.,-1.));
#226=DIRECTION('ref_axis',(-1.,0.,0.));
#227=CARTESIAN_POINT('',(0.,0.,0.));
#228=CARTESIAN_POINT('Origin',(-2.27595720048157E-15,0.,13.95));
#229=CARTESIAN_POINT('',(-2.45594278686419E-15,-1.46969384566991,14.25));
#230=CARTESIAN_POINT('Origin',(-2.27595720048157E-15,0.,14.25));
#231=CARTESIAN_POINT('Origin',(0.,0.,-3.75));
#232=CARTESIAN_POINT('',(5.3,0.8,-3.75));
#233=CARTESIAN_POINT('Origin',(5.3,0.,-3.75));
#234=CARTESIAN_POINT('',(4.52990066116245,-0.8,-3.75));
#235=CARTESIAN_POINT('Ctrl Pts',(4.52990066116245,-0.8,-3.75));
#236=CARTESIAN_POINT('Ctrl Pts',(4.52990066116245,-0.8,-3.64932828911745));
#237=CARTESIAN_POINT('Ctrl Pts',(4.53360394469212,-0.77983873702411,-3.542089523378));
#238=CARTESIAN_POINT('Ctrl Pts',(4.54690262871513,-0.698132971198953,-3.34504864089373));
#239=CARTESIAN_POINT('Ctrl Pts',(4.55629753686324,-0.636599372444457,-3.25522852254598));
#240=CARTESIAN_POINT('Ctrl Pts',(4.57387195263456,-0.494773728282544,-3.11340287838407));
#241=CARTESIAN_POINT('Ctrl Pts',(4.58320447126451,-0.404952645790979,-3.0518675144622));
#242=CARTESIAN_POINT('Ctrl Pts',(4.59635985858235,-0.207908443039911,-2.97016046760343));
#243=CARTESIAN_POINT('Ctrl Pts',(4.6,-0.100668515534295,-2.95));
#244=CARTESIAN_POINT('Ctrl Pts',(4.6,0.100668515534295,-2.95));
#245=CARTESIAN_POINT('Ctrl Pts',(4.59635985858235,0.207908443039911,-2.97016046760343));
#246=CARTESIAN_POINT('Ctrl Pts',(4.58320447126451,0.404952645790979,-3.0518675144622));
#247=CARTESIAN_POINT('Ctrl Pts',(4.57387195263456,0.494773728282544,-3.11340287838407));
#248=CARTESIAN_POINT('Ctrl Pts',(4.55629753686324,0.636599372444457,-3.25522852254598));
#249=CARTESIAN_POINT('Ctrl Pts',(4.54690262871513,0.698132971198953,-3.34504864089373));
#250=CARTESIAN_POINT('Ctrl Pts',(4.53360394469212,0.77983873702411,-3.542089523378));
#251=CARTESIAN_POINT('Ctrl Pts',(4.52990066116245,0.8,-3.64932828911745));
#252=CARTESIAN_POINT('Ctrl Pts',(4.52990066116245,0.8,-3.85067171088255));
#253=CARTESIAN_POINT('Ctrl Pts',(4.53360394469212,0.77983873702411,-3.957910476622));
#254=CARTESIAN_POINT('Ctrl Pts',(4.54690262871513,0.698132971198954,-4.15495135910627));
#255=CARTESIAN_POINT('Ctrl Pts',(4.55629753686324,0.636599372444457,-4.24477147745402));
#256=CARTESIAN_POINT('Ctrl Pts',(4.57387195263456,0.494773728282544,-4.38659712161593));
#257=CARTESIAN_POINT('Ctrl Pts',(4.58320447126451,0.404952645790979,-4.4481324855378));
#258=CARTESIAN_POINT('Ctrl Pts',(4.59635985858235,0.207908443039911,-4.52983953239657));
#259=CARTESIAN_POINT('Ctrl Pts',(4.6,0.100668515534295,-4.55));
#260=CARTESIAN_POINT('Ctrl Pts',(4.6,-0.100668515534294,-4.55));
#261=CARTESIAN_POINT('Ctrl Pts',(4.59635985858235,-0.207908443039911,-4.52983953239657));
#262=CARTESIAN_POINT('Ctrl Pts',(4.58320447126451,-0.404952645790979,-4.4481324855378));
#263=CARTESIAN_POINT('Ctrl Pts',(4.57387195263456,-0.494773728282544,-4.38659712161593));
#264=CARTESIAN_POINT('Ctrl Pts',(4.55629753686324,-0.636599372444456,-4.24477147745402));
#265=CARTESIAN_POINT('Ctrl Pts',(4.54690262871513,-0.698132971198953,-4.15495135910627));
#266=CARTESIAN_POINT('Ctrl Pts',(4.53360394469212,-0.77983873702411,-3.957910476622));
#267=CARTESIAN_POINT('Ctrl Pts',(4.52990066116245,-0.8,-3.85067171088255));
#268=CARTESIAN_POINT('Ctrl Pts',(4.52990066116245,-0.8,-3.75));
#269=CARTESIAN_POINT('Origin',(0.,0.,-3.75));
#270=CARTESIAN_POINT('',(-5.3,0.8,-3.75));
#271=CARTESIAN_POINT('Origin',(-5.3,0.,-3.75));
#272=CARTESIAN_POINT('',(-4.52990066116245,-0.8,-3.75));
#273=CARTESIAN_POINT('Ctrl Pts',(-4.52990066116245,-0.8,-3.75));
#274=CARTESIAN_POINT('Ctrl Pts',(-4.52990066116245,-0.8,-3.85067171088255));
#275=CARTESIAN_POINT('Ctrl Pts',(-4.53360394469212,-0.77983873702411,-3.957910476622));
#276=CARTESIAN_POINT('Ctrl Pts',(-4.54690262871513,-0.698132971198953,-4.15495135910627));
#277=CARTESIAN_POINT('Ctrl Pts',(-4.55629753686324,-0.636599372444456,-4.24477147745402));
#278=CARTESIAN_POINT('Ctrl Pts',(-4.57387195263456,-0.494773728282544,-4.38659712161593));
#279=CARTESIAN_POINT('Ctrl Pts',(-4.58320447126451,-0.404952645790979,-4.4481324855378));
#280=CARTESIAN_POINT('Ctrl Pts',(-4.59635985858235,-0.207908443039911,-4.52983953239657));
#281=CARTESIAN_POINT('Ctrl Pts',(-4.6,-0.100668515534295,-4.55));
#282=CARTESIAN_POINT('Ctrl Pts',(-4.6,0.100668515534295,-4.55));
#283=CARTESIAN_POINT('Ctrl Pts',(-4.59635985858235,0.207908443039911,-4.52983953239657));
#284=CARTESIAN_POINT('Ctrl Pts',(-4.58320447126451,0.404952645790979,-4.4481324855378));
#285=CARTESIAN_POINT('Ctrl Pts',(-4.57387195263456,0.494773728282544,-4.38659712161593));
#286=CARTESIAN_POINT('Ctrl Pts',(-4.55629753686324,0.636599372444457,-4.24477147745402));
#287=CARTESIAN_POINT('Ctrl Pts',(-4.54690262871513,0.698132971198953,-4.15495135910627));
#288=CARTESIAN_POINT('Ctrl Pts',(-4.53360394469212,0.77983873702411,-3.957910476622));
#289=CARTESIAN_POINT('Ctrl Pts',(-4.52990066116245,0.8,-3.85067171088255));
#290=CARTESIAN_POINT('Ctrl Pts',(-4.52990066116245,0.8,-3.64932828911745));
#291=CARTESIAN_POINT('Ctrl Pts',(-4.53360394469212,0.77983873702411,-3.542089523378));
#292=CARTESIAN_POINT('Ctrl Pts',(-4.54690262871513,0.698132971198953,-3.34504864089373));
#293=CARTESIAN_POINT('Ctrl Pts',(-4.55629753686324,0.636599372444456,-3.25522852254598));
#294=CARTESIAN_POINT('Ctrl Pts',(-4.57387195263456,0.494773728282544,-3.11340287838407));
#295=CARTESIAN_POINT('Ctrl Pts',(-4.58320447126451,0.404952645790979,-3.0518675144622));
#296=CARTESIAN_POINT('Ctrl Pts',(-4.59635985858235,0.207908443039911,-2.97016046760343));
#297=CARTESIAN_POINT('Ctrl Pts',(-4.6,0.100668515534295,-2.95));
#298=CARTESIAN_POINT('Ctrl Pts',(-4.6,-0.100668515534295,-2.95));
#299=CARTESIAN_POINT('Ctrl Pts',(-4.59635985858235,-0.207908443039911,-2.97016046760343));
#300=CARTESIAN_POINT('Ctrl Pts',(-4.58320447126451,-0.404952645790979,-3.0518675144622));
#301=CARTESIAN_POINT('Ctrl Pts',(-4.57387195263456,-0.494773728282544,-3.11340287838407));
#302=CARTESIAN_POINT('Ctrl Pts',(-4.55629753686324,-0.636599372444457,-3.25522852254598));
#303=CARTESIAN_POINT('Ctrl Pts',(-4.54690262871513,-0.698132971198953,-3.34504864089373));
#304=CARTESIAN_POINT('Ctrl Pts',(-4.53360394469212,-0.77983873702411,-3.542089523378));
#305=CARTESIAN_POINT('Ctrl Pts',(-4.52990066116245,-0.8,-3.64932828911745));
#306=CARTESIAN_POINT('Ctrl Pts',(-4.52990066116245,-0.8,-3.75));
#307=CARTESIAN_POINT('Origin',(5.3,0.,-3.75));
#308=CARTESIAN_POINT('Origin',(-5.3,0.,-3.75));
#309=CARTESIAN_POINT('Origin',(0.,0.,-4.75));
#310=CARTESIAN_POINT('',(4.6,-5.63337527607783E-16,-4.75));
#311=CARTESIAN_POINT('Origin',(0.,0.,-4.75));
#312=CARTESIAN_POINT('',(4.1,5.02105187650415E-16,-5.25));
#313=CARTESIAN_POINT('Origin',(0.,0.,-5.25));
#314=CARTESIAN_POINT('Origin',(0.,0.,-5.25));
#315=CARTESIAN_POINT('',(4.6,5.63337527607783E-16,5.25));
#316=CARTESIAN_POINT('Origin',(0.,0.,5.25));
#317=CARTESIAN_POINT('Origin',(0.,0.,-5.25));
#318=CARTESIAN_POINT('',(-3.15,3.85763741731416E-16,-5.25));
#319=CARTESIAN_POINT('Origin',(0.,0.,-5.25));
#320=CARTESIAN_POINT('Origin',(0.,0.,-7.25));
#321=CARTESIAN_POINT('',(-1.99529946162075,-2.44353709901429E-16,-7.25));
#322=CARTESIAN_POINT('Origin',(0.,0.,-7.25));
#323=CARTESIAN_POINT('Origin',(0.,0.,-5.25));
#324=CARTESIAN_POINT('Origin',(0.,8.07434927000114E-17,5.25));
#325=CARTESIAN_POINT('',(4.85,6.74697190286478E-16,5.25));
#326=CARTESIAN_POINT('Origin',(0.,8.07434927000114E-17,5.25));
#327=CARTESIAN_POINT('Origin',(0.,8.07434927000114E-17,5.25));
#328=CARTESIAN_POINT('',(4.85,6.74697190286478E-16,14.25));
#329=CARTESIAN_POINT('Origin',(0.,8.07434927000114E-17,14.25));
#330=CARTESIAN_POINT('Origin',(0.,8.07434927000114E-17,14.25));
#331=UNCERTAINTY_MEASURE_WITH_UNIT(LENGTH_MEASURE(0.01),#335,
'DISTANCE_ACCURACY_VALUE',
'Maximum model space distance between geometric entities at asserted c
onnectivities');
#332=UNCERTAINTY_MEASURE_WITH_UNIT(LENGTH_MEASURE(1.E-6),#335,
'DISTANCE_ACCURACY_VALUE',
'Maximum model space distance between geometric entities at asserted c
onnectivities');
#333=(
GEOMETRIC_REPRESENTATION_CONTEXT(3)
GLOBAL_UNCERTAINTY_ASSIGNED_CONTEXT((#331))
GLOBAL_UNIT_ASSIGNED_CONTEXT((#335,#338,#336))
REPRESENTATION_CONTEXT('','3D')
);
#334=(
GEOMETRIC_REPRESENTATION_CONTEXT(3)
GLOBAL_UNCERTAINTY_ASSIGNED_CONTEXT((#332))
GLOBAL_UNIT_ASSIGNED_CONTEXT((#335,#338,#336))
REPRESENTATION_CONTEXT('','3D')
);
#335=(
LENGTH_UNIT()
NAMED_UNIT(*)
SI_UNIT(.MILLI.,.METRE.)
);
#336=(
NAMED_UNIT(*)
SI_UNIT($,.STERADIAN.)
SOLID_ANGLE_UNIT()
);
#337=DIMENSIONAL_EXPONENTS(0.,0.,0.,0.,0.,0.,0.);
#338=(
CONVERSION_BASED_UNIT('degree',#340)
NAMED_UNIT(#337)
PLANE_ANGLE_UNIT()
);
#339=(
NAMED_UNIT(*)
PLANE_ANGLE_UNIT()
SI_UNIT($,.RADIAN.)
);
#340=PLANE_ANGLE_MEASURE_WITH_UNIT(PLANE_ANGLE_MEASURE(0.01745329252),#339);
#341=SHAPE_DEFINITION_REPRESENTATION(#342,#343);
#342=PRODUCT_DEFINITION_SHAPE('',$,#345);
#343=SHAPE_REPRESENTATION('',(#155),#333);
#344=PRODUCT_DEFINITION_CONTEXT('part definition',#349,'design');
#345=PRODUCT_DEFINITION('LD9... LD9','LD9... LD9',#346,#344);
#346=PRODUCT_DEFINITION_FORMATION('','0',#351);
#347=PRODUCT_RELATED_PRODUCT_CATEGORY('LD9... LD9','LD9... LD9',(#351));
#348=APPLICATION_PROTOCOL_DEFINITION('international standard',
'automotive_design',2009,#349);
#349=APPLICATION_CONTEXT(
'Core Data for Automotive Mechanical Design Process');
#350=PRODUCT_CONTEXT('part definition',#349,'mechanical');
#351=PRODUCT('LD9... LD9','LD9... LD9',$,(#350));
#352=PRESENTATION_STYLE_ASSIGNMENT((#356));
#353=PRESENTATION_STYLE_ASSIGNMENT((#357));
#354=PRESENTATION_STYLE_ASSIGNMENT((#358));
#355=PRESENTATION_STYLE_ASSIGNMENT((#359));
#356=SURFACE_STYLE_USAGE(.BOTH.,#360);
#357=SURFACE_STYLE_USAGE(.BOTH.,#361);
#358=SURFACE_STYLE_USAGE(.BOTH.,#362);
#359=SURFACE_STYLE_USAGE(.BOTH.,#363);
#360=SURFACE_SIDE_STYLE('',(#364));
#361=SURFACE_SIDE_STYLE('',(#365));
#362=SURFACE_SIDE_STYLE('',(#366));
#363=SURFACE_SIDE_STYLE('',(#367));
#364=SURFACE_STYLE_FILL_AREA(#368);
#365=SURFACE_STYLE_FILL_AREA(#369);
#366=SURFACE_STYLE_FILL_AREA(#370);
#367=SURFACE_STYLE_FILL_AREA(#371);
#368=FILL_AREA_STYLE('',(#372));
#369=FILL_AREA_STYLE('',(#373));
#370=FILL_AREA_STYLE('',(#374));
#371=FILL_AREA_STYLE('',(#375));
#372=FILL_AREA_STYLE_COLOUR('',#376);
#373=FILL_AREA_STYLE_COLOUR('',#377);
#374=FILL_AREA_STYLE_COLOUR('',#378);
#375=FILL_AREA_STYLE_COLOUR('',#379);
#376=COLOUR_RGB('',0.67843137254902,0.67843137254902,0.67843137254902);
#377=COLOUR_RGB('',0.83921568627451,0.83921568627451,0.83921568627451);
#378=COLOUR_RGB('',1.,1.,0.);
#379=COLOUR_RGB('',0.2,0.2,0.2);
ENDSEC;
END-ISO-10303-21;
