ISO-10303-21;
HEADER;
/* Generated by software containing ST-Developer
 * from STEP Tools, Inc. (www.steptools.com) 
 */

FILE_DESCRIPTION(
/* description */ (''),
/* implementation_level */ '2;1');

FILE_NAME(
/* name */ 
'H:\\KE\\3D-Zeichnungen vereinfacht f\X\FCr Kunden.ipt\\NAS_16\\NAS_16
_ipt.stp',
/* time_stamp */ '2018-02-08T08:26:48+01:00',
/* author */ ('ahoffmann'),
/* organization */ (''),
/* preprocessor_version */ 'ST-DEVELOPER v16.1',
/* originating_system */ 'Autodesk Inventor 2016',
/* authorisation */ '');

FILE_SCHEMA (('AUTOMOTIVE_DESIGN { 1 0 10303 214 3 1 1 }'));
ENDSEC;

DATA;
#10=MECHANICAL_DESIGN_GEOMETRIC_PRESENTATION_REPRESENTATION('',(#13),#609);
#11=SHAPE_REPRESENTATION_RELATIONSHIP('SRR','None',#619,#12);
#12=ADVANCED_BREP_SHAPE_REPRESENTATION('',(#14),#608);
#13=STYLED_ITEM('',(#628),#14);
#14=MANIFOLD_SOLID_BREP('Volumenk\X\F6rper3',#371);
#15=FACE_BOUND('',#69,.T.);
#16=FACE_BOUND('',#71,.T.);
#17=FACE_BOUND('',#73,.T.);
#18=CIRCLE('',#377,0.81);
#19=CIRCLE('',#378,0.81);
#20=CIRCLE('',#383,0.81);
#21=CIRCLE('',#384,0.81);
#22=CIRCLE('',#389,0.81);
#23=CIRCLE('',#390,0.81);
#24=CIRCLE('',#395,0.81);
#25=CIRCLE('',#396,0.81);
#26=CIRCLE('',#398,3.);
#27=CIRCLE('',#399,3.);
#28=CYLINDRICAL_SURFACE('',#376,0.81);
#29=CYLINDRICAL_SURFACE('',#382,0.81);
#30=CYLINDRICAL_SURFACE('',#388,0.81);
#31=CYLINDRICAL_SURFACE('',#394,0.81);
#32=CYLINDRICAL_SURFACE('',#397,3.);
#33=FACE_OUTER_BOUND('',#52,.T.);
#34=FACE_OUTER_BOUND('',#53,.T.);
#35=FACE_OUTER_BOUND('',#54,.T.);
#36=FACE_OUTER_BOUND('',#55,.T.);
#37=FACE_OUTER_BOUND('',#56,.T.);
#38=FACE_OUTER_BOUND('',#57,.T.);
#39=FACE_OUTER_BOUND('',#58,.T.);
#40=FACE_OUTER_BOUND('',#59,.T.);
#41=FACE_OUTER_BOUND('',#60,.T.);
#42=FACE_OUTER_BOUND('',#61,.T.);
#43=FACE_OUTER_BOUND('',#62,.T.);
#44=FACE_OUTER_BOUND('',#63,.T.);
#45=FACE_OUTER_BOUND('',#64,.T.);
#46=FACE_OUTER_BOUND('',#65,.T.);
#47=FACE_OUTER_BOUND('',#66,.T.);
#48=FACE_OUTER_BOUND('',#67,.T.);
#49=FACE_OUTER_BOUND('',#68,.T.);
#50=FACE_OUTER_BOUND('',#70,.T.);
#51=FACE_OUTER_BOUND('',#72,.T.);
#52=EDGE_LOOP('',(#238,#239,#240,#241));
#53=EDGE_LOOP('',(#242,#243,#244,#245));
#54=EDGE_LOOP('',(#246,#247,#248,#249));
#55=EDGE_LOOP('',(#250,#251,#252,#253));
#56=EDGE_LOOP('',(#254,#255,#256,#257));
#57=EDGE_LOOP('',(#258,#259,#260,#261));
#58=EDGE_LOOP('',(#262,#263,#264,#265));
#59=EDGE_LOOP('',(#266,#267,#268,#269));
#60=EDGE_LOOP('',(#270,#271,#272,#273));
#61=EDGE_LOOP('',(#274,#275,#276,#277));
#62=EDGE_LOOP('',(#278,#279,#280,#281));
#63=EDGE_LOOP('',(#282,#283,#284,#285));
#64=EDGE_LOOP('',(#286,#287,#288,#289));
#65=EDGE_LOOP('',(#290,#291,#292,#293));
#66=EDGE_LOOP('',(#294,#295,#296,#297));
#67=EDGE_LOOP('',(#298,#299,#300,#301));
#68=EDGE_LOOP('',(#302));
#69=EDGE_LOOP('',(#303));
#70=EDGE_LOOP('',(#304));
#71=EDGE_LOOP('',(#305,#306,#307,#308,#309,#310,#311,#312,#313,#314,#315,
#316,#317,#318,#319,#320));
#72=EDGE_LOOP('',(#321));
#73=EDGE_LOOP('',(#322,#323,#324,#325,#326,#327,#328,#329,#330,#331,#332,
#333,#334,#335,#336,#337));
#74=LINE('',#506,#114);
#75=LINE('',#508,#115);
#76=LINE('',#510,#116);
#77=LINE('',#511,#117);
#78=LINE('',#514,#118);
#79=LINE('',#516,#119);
#80=LINE('',#517,#120);
#81=LINE('',#520,#121);
#82=LINE('',#522,#122);
#83=LINE('',#523,#123);
#84=LINE('',#528,#124);
#85=LINE('',#532,#125);
#86=LINE('',#534,#126);
#87=LINE('',#535,#127);
#88=LINE('',#538,#128);
#89=LINE('',#540,#129);
#90=LINE('',#541,#130);
#91=LINE('',#544,#131);
#92=LINE('',#546,#132);
#93=LINE('',#547,#133);
#94=LINE('',#552,#134);
#95=LINE('',#556,#135);
#96=LINE('',#558,#136);
#97=LINE('',#559,#137);
#98=LINE('',#562,#138);
#99=LINE('',#564,#139);
#100=LINE('',#565,#140);
#101=LINE('',#568,#141);
#102=LINE('',#570,#142);
#103=LINE('',#571,#143);
#104=LINE('',#576,#144);
#105=LINE('',#580,#145);
#106=LINE('',#582,#146);
#107=LINE('',#583,#147);
#108=LINE('',#586,#148);
#109=LINE('',#588,#149);
#110=LINE('',#589,#150);
#111=LINE('',#592,#151);
#112=LINE('',#594,#152);
#113=LINE('',#595,#153);
#114=VECTOR('',#406,0.0944722227011683);
#115=VECTOR('',#407,0.03);
#116=VECTOR('',#408,0.0944722227011683);
#117=VECTOR('',#409,0.03);
#118=VECTOR('',#412,0.170000000000005);
#119=VECTOR('',#413,0.03);
#120=VECTOR('',#414,0.170000000000005);
#121=VECTOR('',#417,0.0944722227011687);
#122=VECTOR('',#418,0.03);
#123=VECTOR('',#419,0.0944722227011687);
#124=VECTOR('',#424,0.03);
#125=VECTOR('',#429,0.0944722227011652);
#126=VECTOR('',#430,0.03);
#127=VECTOR('',#431,0.0944722227011652);
#128=VECTOR('',#434,0.170000000000002);
#129=VECTOR('',#435,0.03);
#130=VECTOR('',#436,0.170000000000002);
#131=VECTOR('',#439,0.094472222701166);
#132=VECTOR('',#440,0.03);
#133=VECTOR('',#441,0.094472222701166);
#134=VECTOR('',#446,0.03);
#135=VECTOR('',#451,0.0944722227011653);
#136=VECTOR('',#452,0.03);
#137=VECTOR('',#453,0.0944722227011652);
#138=VECTOR('',#456,0.170000000000005);
#139=VECTOR('',#457,0.03);
#140=VECTOR('',#458,0.170000000000005);
#141=VECTOR('',#461,0.0944722227011688);
#142=VECTOR('',#462,0.03);
#143=VECTOR('',#463,0.094472222701169);
#144=VECTOR('',#468,0.03);
#145=VECTOR('',#473,0.0944722227011654);
#146=VECTOR('',#474,0.03);
#147=VECTOR('',#475,0.0944722227011654);
#148=VECTOR('',#478,0.169999999999999);
#149=VECTOR('',#479,0.03);
#150=VECTOR('',#480,0.169999999999999);
#151=VECTOR('',#483,0.0944722227011708);
#152=VECTOR('',#484,0.03);
#153=VECTOR('',#485,0.0944722227011708);
#154=VERTEX_POINT('',#504);
#155=VERTEX_POINT('',#505);
#156=VERTEX_POINT('',#507);
#157=VERTEX_POINT('',#509);
#158=VERTEX_POINT('',#513);
#159=VERTEX_POINT('',#515);
#160=VERTEX_POINT('',#519);
#161=VERTEX_POINT('',#521);
#162=VERTEX_POINT('',#525);
#163=VERTEX_POINT('',#527);
#164=VERTEX_POINT('',#531);
#165=VERTEX_POINT('',#533);
#166=VERTEX_POINT('',#537);
#167=VERTEX_POINT('',#539);
#168=VERTEX_POINT('',#543);
#169=VERTEX_POINT('',#545);
#170=VERTEX_POINT('',#549);
#171=VERTEX_POINT('',#551);
#172=VERTEX_POINT('',#555);
#173=VERTEX_POINT('',#557);
#174=VERTEX_POINT('',#561);
#175=VERTEX_POINT('',#563);
#176=VERTEX_POINT('',#567);
#177=VERTEX_POINT('',#569);
#178=VERTEX_POINT('',#573);
#179=VERTEX_POINT('',#575);
#180=VERTEX_POINT('',#579);
#181=VERTEX_POINT('',#581);
#182=VERTEX_POINT('',#585);
#183=VERTEX_POINT('',#587);
#184=VERTEX_POINT('',#591);
#185=VERTEX_POINT('',#593);
#186=VERTEX_POINT('',#600);
#187=VERTEX_POINT('',#602);
#188=EDGE_CURVE('',#154,#155,#74,.T.);
#189=EDGE_CURVE('',#154,#156,#75,.T.);
#190=EDGE_CURVE('',#157,#156,#76,.T.);
#191=EDGE_CURVE('',#155,#157,#77,.T.);
#192=EDGE_CURVE('',#158,#154,#78,.T.);
#193=EDGE_CURVE('',#158,#159,#79,.T.);
#194=EDGE_CURVE('',#156,#159,#80,.T.);
#195=EDGE_CURVE('',#160,#158,#81,.T.);
#196=EDGE_CURVE('',#160,#161,#82,.T.);
#197=EDGE_CURVE('',#159,#161,#83,.T.);
#198=EDGE_CURVE('',#162,#160,#18,.T.);
#199=EDGE_CURVE('',#162,#163,#84,.T.);
#200=EDGE_CURVE('',#161,#163,#19,.T.);
#201=EDGE_CURVE('',#164,#162,#85,.T.);
#202=EDGE_CURVE('',#164,#165,#86,.T.);
#203=EDGE_CURVE('',#163,#165,#87,.T.);
#204=EDGE_CURVE('',#166,#164,#88,.T.);
#205=EDGE_CURVE('',#166,#167,#89,.T.);
#206=EDGE_CURVE('',#165,#167,#90,.T.);
#207=EDGE_CURVE('',#168,#166,#91,.T.);
#208=EDGE_CURVE('',#168,#169,#92,.T.);
#209=EDGE_CURVE('',#167,#169,#93,.T.);
#210=EDGE_CURVE('',#170,#168,#20,.T.);
#211=EDGE_CURVE('',#170,#171,#94,.T.);
#212=EDGE_CURVE('',#169,#171,#21,.T.);
#213=EDGE_CURVE('',#172,#170,#95,.T.);
#214=EDGE_CURVE('',#172,#173,#96,.T.);
#215=EDGE_CURVE('',#171,#173,#97,.T.);
#216=EDGE_CURVE('',#174,#172,#98,.T.);
#217=EDGE_CURVE('',#174,#175,#99,.T.);
#218=EDGE_CURVE('',#173,#175,#100,.T.);
#219=EDGE_CURVE('',#176,#174,#101,.T.);
#220=EDGE_CURVE('',#176,#177,#102,.T.);
#221=EDGE_CURVE('',#175,#177,#103,.T.);
#222=EDGE_CURVE('',#178,#176,#22,.T.);
#223=EDGE_CURVE('',#178,#179,#104,.T.);
#224=EDGE_CURVE('',#177,#179,#23,.T.);
#225=EDGE_CURVE('',#180,#178,#105,.T.);
#226=EDGE_CURVE('',#180,#181,#106,.T.);
#227=EDGE_CURVE('',#179,#181,#107,.T.);
#228=EDGE_CURVE('',#182,#180,#108,.T.);
#229=EDGE_CURVE('',#182,#183,#109,.T.);
#230=EDGE_CURVE('',#181,#183,#110,.T.);
#231=EDGE_CURVE('',#184,#182,#111,.T.);
#232=EDGE_CURVE('',#184,#185,#112,.T.);
#233=EDGE_CURVE('',#183,#185,#113,.T.);
#234=EDGE_CURVE('',#155,#184,#24,.T.);
#235=EDGE_CURVE('',#185,#157,#25,.T.);
#236=EDGE_CURVE('',#186,#186,#26,.T.);
#237=EDGE_CURVE('',#187,#187,#27,.T.);
#238=ORIENTED_EDGE('',*,*,#188,.F.);
#239=ORIENTED_EDGE('',*,*,#189,.T.);
#240=ORIENTED_EDGE('',*,*,#190,.F.);
#241=ORIENTED_EDGE('',*,*,#191,.F.);
#242=ORIENTED_EDGE('',*,*,#192,.F.);
#243=ORIENTED_EDGE('',*,*,#193,.T.);
#244=ORIENTED_EDGE('',*,*,#194,.F.);
#245=ORIENTED_EDGE('',*,*,#189,.F.);
#246=ORIENTED_EDGE('',*,*,#195,.F.);
#247=ORIENTED_EDGE('',*,*,#196,.T.);
#248=ORIENTED_EDGE('',*,*,#197,.F.);
#249=ORIENTED_EDGE('',*,*,#193,.F.);
#250=ORIENTED_EDGE('',*,*,#198,.F.);
#251=ORIENTED_EDGE('',*,*,#199,.T.);
#252=ORIENTED_EDGE('',*,*,#200,.F.);
#253=ORIENTED_EDGE('',*,*,#196,.F.);
#254=ORIENTED_EDGE('',*,*,#201,.F.);
#255=ORIENTED_EDGE('',*,*,#202,.T.);
#256=ORIENTED_EDGE('',*,*,#203,.F.);
#257=ORIENTED_EDGE('',*,*,#199,.F.);
#258=ORIENTED_EDGE('',*,*,#204,.F.);
#259=ORIENTED_EDGE('',*,*,#205,.T.);
#260=ORIENTED_EDGE('',*,*,#206,.F.);
#261=ORIENTED_EDGE('',*,*,#202,.F.);
#262=ORIENTED_EDGE('',*,*,#207,.F.);
#263=ORIENTED_EDGE('',*,*,#208,.T.);
#264=ORIENTED_EDGE('',*,*,#209,.F.);
#265=ORIENTED_EDGE('',*,*,#205,.F.);
#266=ORIENTED_EDGE('',*,*,#210,.F.);
#267=ORIENTED_EDGE('',*,*,#211,.T.);
#268=ORIENTED_EDGE('',*,*,#212,.F.);
#269=ORIENTED_EDGE('',*,*,#208,.F.);
#270=ORIENTED_EDGE('',*,*,#213,.F.);
#271=ORIENTED_EDGE('',*,*,#214,.T.);
#272=ORIENTED_EDGE('',*,*,#215,.F.);
#273=ORIENTED_EDGE('',*,*,#211,.F.);
#274=ORIENTED_EDGE('',*,*,#216,.F.);
#275=ORIENTED_EDGE('',*,*,#217,.T.);
#276=ORIENTED_EDGE('',*,*,#218,.F.);
#277=ORIENTED_EDGE('',*,*,#214,.F.);
#278=ORIENTED_EDGE('',*,*,#219,.F.);
#279=ORIENTED_EDGE('',*,*,#220,.T.);
#280=ORIENTED_EDGE('',*,*,#221,.F.);
#281=ORIENTED_EDGE('',*,*,#217,.F.);
#282=ORIENTED_EDGE('',*,*,#222,.F.);
#283=ORIENTED_EDGE('',*,*,#223,.T.);
#284=ORIENTED_EDGE('',*,*,#224,.F.);
#285=ORIENTED_EDGE('',*,*,#220,.F.);
#286=ORIENTED_EDGE('',*,*,#225,.F.);
#287=ORIENTED_EDGE('',*,*,#226,.T.);
#288=ORIENTED_EDGE('',*,*,#227,.F.);
#289=ORIENTED_EDGE('',*,*,#223,.F.);
#290=ORIENTED_EDGE('',*,*,#228,.F.);
#291=ORIENTED_EDGE('',*,*,#229,.T.);
#292=ORIENTED_EDGE('',*,*,#230,.F.);
#293=ORIENTED_EDGE('',*,*,#226,.F.);
#294=ORIENTED_EDGE('',*,*,#231,.F.);
#295=ORIENTED_EDGE('',*,*,#232,.T.);
#296=ORIENTED_EDGE('',*,*,#233,.F.);
#297=ORIENTED_EDGE('',*,*,#229,.F.);
#298=ORIENTED_EDGE('',*,*,#234,.F.);
#299=ORIENTED_EDGE('',*,*,#191,.T.);
#300=ORIENTED_EDGE('',*,*,#235,.F.);
#301=ORIENTED_EDGE('',*,*,#232,.F.);
#302=ORIENTED_EDGE('',*,*,#236,.F.);
#303=ORIENTED_EDGE('',*,*,#237,.F.);
#304=ORIENTED_EDGE('',*,*,#237,.T.);
#305=ORIENTED_EDGE('',*,*,#188,.T.);
#306=ORIENTED_EDGE('',*,*,#234,.T.);
#307=ORIENTED_EDGE('',*,*,#231,.T.);
#308=ORIENTED_EDGE('',*,*,#228,.T.);
#309=ORIENTED_EDGE('',*,*,#225,.T.);
#310=ORIENTED_EDGE('',*,*,#222,.T.);
#311=ORIENTED_EDGE('',*,*,#219,.T.);
#312=ORIENTED_EDGE('',*,*,#216,.T.);
#313=ORIENTED_EDGE('',*,*,#213,.T.);
#314=ORIENTED_EDGE('',*,*,#210,.T.);
#315=ORIENTED_EDGE('',*,*,#207,.T.);
#316=ORIENTED_EDGE('',*,*,#204,.T.);
#317=ORIENTED_EDGE('',*,*,#201,.T.);
#318=ORIENTED_EDGE('',*,*,#198,.T.);
#319=ORIENTED_EDGE('',*,*,#195,.T.);
#320=ORIENTED_EDGE('',*,*,#192,.T.);
#321=ORIENTED_EDGE('',*,*,#236,.T.);
#322=ORIENTED_EDGE('',*,*,#190,.T.);
#323=ORIENTED_EDGE('',*,*,#194,.T.);
#324=ORIENTED_EDGE('',*,*,#197,.T.);
#325=ORIENTED_EDGE('',*,*,#200,.T.);
#326=ORIENTED_EDGE('',*,*,#203,.T.);
#327=ORIENTED_EDGE('',*,*,#206,.T.);
#328=ORIENTED_EDGE('',*,*,#209,.T.);
#329=ORIENTED_EDGE('',*,*,#212,.T.);
#330=ORIENTED_EDGE('',*,*,#215,.T.);
#331=ORIENTED_EDGE('',*,*,#218,.T.);
#332=ORIENTED_EDGE('',*,*,#221,.T.);
#333=ORIENTED_EDGE('',*,*,#224,.T.);
#334=ORIENTED_EDGE('',*,*,#227,.T.);
#335=ORIENTED_EDGE('',*,*,#230,.T.);
#336=ORIENTED_EDGE('',*,*,#233,.T.);
#337=ORIENTED_EDGE('',*,*,#235,.T.);
#338=PLANE('',#373);
#339=PLANE('',#374);
#340=PLANE('',#375);
#341=PLANE('',#379);
#342=PLANE('',#380);
#343=PLANE('',#381);
#344=PLANE('',#385);
#345=PLANE('',#386);
#346=PLANE('',#387);
#347=PLANE('',#391);
#348=PLANE('',#392);
#349=PLANE('',#393);
#350=PLANE('',#400);
#351=PLANE('',#401);
#352=ADVANCED_FACE('',(#33),#338,.F.);
#353=ADVANCED_FACE('',(#34),#339,.F.);
#354=ADVANCED_FACE('',(#35),#340,.F.);
#355=ADVANCED_FACE('',(#36),#28,.F.);
#356=ADVANCED_FACE('',(#37),#341,.F.);
#357=ADVANCED_FACE('',(#38),#342,.F.);
#358=ADVANCED_FACE('',(#39),#343,.F.);
#359=ADVANCED_FACE('',(#40),#29,.F.);
#360=ADVANCED_FACE('',(#41),#344,.F.);
#361=ADVANCED_FACE('',(#42),#345,.F.);
#362=ADVANCED_FACE('',(#43),#346,.F.);
#363=ADVANCED_FACE('',(#44),#30,.F.);
#364=ADVANCED_FACE('',(#45),#347,.F.);
#365=ADVANCED_FACE('',(#46),#348,.F.);
#366=ADVANCED_FACE('',(#47),#349,.F.);
#367=ADVANCED_FACE('',(#48),#31,.F.);
#368=ADVANCED_FACE('',(#49,#15),#32,.T.);
#369=ADVANCED_FACE('',(#50,#16),#350,.F.);
#370=ADVANCED_FACE('',(#51,#17),#351,.T.);
#371=CLOSED_SHELL('',(#352,#353,#354,#355,#356,#357,#358,#359,#360,#361,
#362,#363,#364,#365,#366,#367,#368,#369,#370));
#372=AXIS2_PLACEMENT_3D('placement',#502,#402,#403);
#373=AXIS2_PLACEMENT_3D('',#503,#404,#405);
#374=AXIS2_PLACEMENT_3D('',#512,#410,#411);
#375=AXIS2_PLACEMENT_3D('',#518,#415,#416);
#376=AXIS2_PLACEMENT_3D('',#524,#420,#421);
#377=AXIS2_PLACEMENT_3D('',#526,#422,#423);
#378=AXIS2_PLACEMENT_3D('',#529,#425,#426);
#379=AXIS2_PLACEMENT_3D('',#530,#427,#428);
#380=AXIS2_PLACEMENT_3D('',#536,#432,#433);
#381=AXIS2_PLACEMENT_3D('',#542,#437,#438);
#382=AXIS2_PLACEMENT_3D('',#548,#442,#443);
#383=AXIS2_PLACEMENT_3D('',#550,#444,#445);
#384=AXIS2_PLACEMENT_3D('',#553,#447,#448);
#385=AXIS2_PLACEMENT_3D('',#554,#449,#450);
#386=AXIS2_PLACEMENT_3D('',#560,#454,#455);
#387=AXIS2_PLACEMENT_3D('',#566,#459,#460);
#388=AXIS2_PLACEMENT_3D('',#572,#464,#465);
#389=AXIS2_PLACEMENT_3D('',#574,#466,#467);
#390=AXIS2_PLACEMENT_3D('',#577,#469,#470);
#391=AXIS2_PLACEMENT_3D('',#578,#471,#472);
#392=AXIS2_PLACEMENT_3D('',#584,#476,#477);
#393=AXIS2_PLACEMENT_3D('',#590,#481,#482);
#394=AXIS2_PLACEMENT_3D('',#596,#486,#487);
#395=AXIS2_PLACEMENT_3D('',#597,#488,#489);
#396=AXIS2_PLACEMENT_3D('',#598,#490,#491);
#397=AXIS2_PLACEMENT_3D('',#599,#492,#493);
#398=AXIS2_PLACEMENT_3D('',#601,#494,#495);
#399=AXIS2_PLACEMENT_3D('',#603,#496,#497);
#400=AXIS2_PLACEMENT_3D('',#604,#498,#499);
#401=AXIS2_PLACEMENT_3D('',#605,#500,#501);
#402=DIRECTION('axis',(0.,0.,1.));
#403=DIRECTION('refdir',(1.,0.,0.));
#404=DIRECTION('center_axis',(-1.,1.99193791882317E-13,0.));
#405=DIRECTION('ref_axis',(-1.99187888405561E-13,-1.,0.));
#406=DIRECTION('',(-1.99193791882317E-13,-1.,0.));
#407=DIRECTION('',(0.,0.,1.));
#408=DIRECTION('',(1.99193791882317E-13,1.,0.));
#409=DIRECTION('',(0.,0.,1.));
#410=DIRECTION('center_axis',(-1.56737368182371E-14,1.,0.));
#411=DIRECTION('ref_axis',(-1.,-1.56541446472147E-14,0.));
#412=DIRECTION('',(-1.,-1.56737368182371E-14,0.));
#413=DIRECTION('',(0.,0.,1.));
#414=DIRECTION('',(1.,1.56737368182371E-14,0.));
#415=DIRECTION('center_axis',(1.,0.,0.));
#416=DIRECTION('ref_axis',(0.,1.,0.));
#417=DIRECTION('',(0.,1.,0.));
#418=DIRECTION('',(0.,0.,1.));
#419=DIRECTION('',(0.,-1.,0.));
#420=DIRECTION('center_axis',(0.,0.,1.));
#421=DIRECTION('ref_axis',(0.994478737405968,0.104938271604934,0.));
#422=DIRECTION('center_axis',(0.,0.,1.));
#423=DIRECTION('ref_axis',(0.994478737405968,0.104938271604934,0.));
#424=DIRECTION('',(0.,0.,1.));
#425=DIRECTION('center_axis',(0.,0.,-1.));
#426=DIRECTION('ref_axis',(0.994478737405968,0.104938271604934,0.));
#427=DIRECTION('center_axis',(0.,1.,0.));
#428=DIRECTION('ref_axis',(-1.,0.,0.));
#429=DIRECTION('',(-1.,0.,0.));
#430=DIRECTION('',(0.,0.,1.));
#431=DIRECTION('',(1.,0.,0.));
#432=DIRECTION('center_axis',(1.,0.,0.));
#433=DIRECTION('ref_axis',(0.,1.,0.));
#434=DIRECTION('',(0.,1.,0.));
#435=DIRECTION('',(0.,0.,1.));
#436=DIRECTION('',(0.,-1.,0.));
#437=DIRECTION('center_axis',(0.,-1.,0.));
#438=DIRECTION('ref_axis',(1.,0.,0.));
#439=DIRECTION('',(1.,0.,0.));
#440=DIRECTION('',(0.,0.,1.));
#441=DIRECTION('',(-1.,0.,0.));
#442=DIRECTION('center_axis',(0.,0.,1.));
#443=DIRECTION('ref_axis',(0.104938271604941,-0.994478737405968,0.));
#444=DIRECTION('center_axis',(0.,0.,1.));
#445=DIRECTION('ref_axis',(0.104938271604941,-0.994478737405968,0.));
#446=DIRECTION('',(0.,0.,1.));
#447=DIRECTION('center_axis',(0.,0.,-1.));
#448=DIRECTION('ref_axis',(0.104938271604941,-0.994478737405968,0.));
#449=DIRECTION('center_axis',(1.,0.,0.));
#450=DIRECTION('ref_axis',(0.,1.,0.));
#451=DIRECTION('',(0.,1.,0.));
#452=DIRECTION('',(0.,0.,1.));
#453=DIRECTION('',(0.,-1.,0.));
#454=DIRECTION('center_axis',(1.69798815530902E-14,-1.,0.));
#455=DIRECTION('ref_axis',(1.,1.69864122767649E-14,0.));
#456=DIRECTION('',(1.,1.69798815530902E-14,0.));
#457=DIRECTION('',(0.,0.,1.));
#458=DIRECTION('',(-1.,-1.69798815530902E-14,0.));
#459=DIRECTION('center_axis',(-1.,2.93796153218755E-16,0.));
#460=DIRECTION('ref_axis',(-2.91433543964104E-16,-1.,0.));
#461=DIRECTION('',(-2.93796153218755E-16,-1.,0.));
#462=DIRECTION('',(0.,0.,1.));
#463=DIRECTION('',(2.93796153218755E-16,1.,0.));
#464=DIRECTION('center_axis',(0.,0.,1.));
#465=DIRECTION('ref_axis',(-0.994478737405968,-0.104938271604937,0.));
#466=DIRECTION('center_axis',(0.,0.,1.));
#467=DIRECTION('ref_axis',(-0.994478737405968,-0.104938271604937,0.));
#468=DIRECTION('',(0.,0.,1.));
#469=DIRECTION('center_axis',(0.,0.,-1.));
#470=DIRECTION('ref_axis',(-0.994478737405968,-0.104938271604937,0.));
#471=DIRECTION('center_axis',(0.,-1.,0.));
#472=DIRECTION('ref_axis',(1.,0.,0.));
#473=DIRECTION('',(1.,0.,0.));
#474=DIRECTION('',(0.,0.,1.));
#475=DIRECTION('',(-1.,0.,0.));
#476=DIRECTION('center_axis',(-1.,-3.39597631061815E-14,0.));
#477=DIRECTION('ref_axis',(3.39728245535298E-14,-1.,0.));
#478=DIRECTION('',(3.39597631061815E-14,-1.,0.));
#479=DIRECTION('',(0.,0.,1.));
#480=DIRECTION('',(-3.39597631061815E-14,1.,0.));
#481=DIRECTION('center_axis',(2.11533230317499E-14,1.,0.));
#482=DIRECTION('ref_axis',(-1.,2.11497486191092E-14,0.));
#483=DIRECTION('',(-1.,2.11533230317499E-14,0.));
#484=DIRECTION('',(0.,0.,1.));
#485=DIRECTION('',(1.,-2.11533230317499E-14,0.));
#486=DIRECTION('center_axis',(0.,0.,1.));
#487=DIRECTION('ref_axis',(-0.104938271604964,0.994478737405965,0.));
#488=DIRECTION('center_axis',(0.,0.,1.));
#489=DIRECTION('ref_axis',(-0.104938271604964,0.994478737405965,0.));
#490=DIRECTION('center_axis',(0.,0.,-1.));
#491=DIRECTION('ref_axis',(-0.104938271604964,0.994478737405965,0.));
#492=DIRECTION('center_axis',(0.,0.,1.));
#493=DIRECTION('ref_axis',(-1.,0.,0.));
#494=DIRECTION('center_axis',(0.,0.,1.));
#495=DIRECTION('ref_axis',(-1.,0.,0.));
#496=DIRECTION('center_axis',(0.,0.,-1.));
#497=DIRECTION('ref_axis',(-1.,0.,0.));
#498=DIRECTION('center_axis',(0.,0.,1.));
#499=DIRECTION('ref_axis',(1.,0.,0.));
#500=DIRECTION('center_axis',(0.,0.,1.));
#501=DIRECTION('ref_axis',(1.,0.,0.));
#502=CARTESIAN_POINT('',(0.,0.,0.));
#503=CARTESIAN_POINT('Origin',(-0.0850000000000022,0.900000000000001,0.));
#504=CARTESIAN_POINT('',(-0.0850000000000022,0.900000000000001,0.));
#505=CARTESIAN_POINT('',(-0.0850000000000211,0.805527777298832,0.));
#506=CARTESIAN_POINT('',(-0.0850000000000919,0.450000000000009,0.));
#507=CARTESIAN_POINT('',(-0.0850000000000022,0.900000000000001,0.03));
#508=CARTESIAN_POINT('',(-0.0850000000000022,0.900000000000001,0.));
#509=CARTESIAN_POINT('',(-0.0850000000000211,0.805527777298832,0.03));
#510=CARTESIAN_POINT('',(-0.0850000000000919,0.450000000000009,0.03));
#511=CARTESIAN_POINT('',(-0.0850000000000211,0.805527777298832,0.));
#512=CARTESIAN_POINT('Origin',(0.0850000000000023,0.900000000000003,0.));
#513=CARTESIAN_POINT('',(0.0850000000000023,0.900000000000003,0.));
#514=CARTESIAN_POINT('',(0.042499999999994,0.900000000000003,0.));
#515=CARTESIAN_POINT('',(0.0850000000000023,0.900000000000003,0.03));
#516=CARTESIAN_POINT('',(0.0850000000000023,0.900000000000003,0.));
#517=CARTESIAN_POINT('',(0.042499999999994,0.900000000000003,0.03));
#518=CARTESIAN_POINT('Origin',(0.0850000000000023,0.805527777298835,0.));
#519=CARTESIAN_POINT('',(0.0850000000000023,0.805527777298835,0.));
#520=CARTESIAN_POINT('',(0.0850000000000023,0.402763888649417,0.));
#521=CARTESIAN_POINT('',(0.0850000000000023,0.805527777298835,0.03));
#522=CARTESIAN_POINT('',(0.0850000000000023,0.805527777298835,0.));
#523=CARTESIAN_POINT('',(0.0850000000000023,0.402763888649417,0.03));
#524=CARTESIAN_POINT('Origin',(0.,0.,0.));
#525=CARTESIAN_POINT('',(0.805527777298835,0.0849999999999966,0.));
#526=CARTESIAN_POINT('Origin',(0.,0.,0.));
#527=CARTESIAN_POINT('',(0.805527777298835,0.0849999999999966,0.03));
#528=CARTESIAN_POINT('',(0.805527777298835,0.0849999999999966,0.));
#529=CARTESIAN_POINT('Origin',(0.,0.,0.03));
#530=CARTESIAN_POINT('Origin',(0.9,0.0849999999999966,0.));
#531=CARTESIAN_POINT('',(0.9,0.0849999999999966,0.));
#532=CARTESIAN_POINT('',(0.45,0.0849999999999966,0.));
#533=CARTESIAN_POINT('',(0.9,0.0849999999999966,0.03));
#534=CARTESIAN_POINT('',(0.9,0.0849999999999966,0.));
#535=CARTESIAN_POINT('',(0.45,0.0849999999999966,0.03));
#536=CARTESIAN_POINT('Origin',(0.9,-0.0850000000000051,0.));
#537=CARTESIAN_POINT('',(0.9,-0.0850000000000051,0.));
#538=CARTESIAN_POINT('',(0.9,-0.0425000000000025,0.));
#539=CARTESIAN_POINT('',(0.9,-0.0850000000000051,0.03));
#540=CARTESIAN_POINT('',(0.9,-0.0850000000000051,0.));
#541=CARTESIAN_POINT('',(0.9,-0.0425000000000025,0.03));
#542=CARTESIAN_POINT('Origin',(0.805527777298834,-0.0850000000000051,0.));
#543=CARTESIAN_POINT('',(0.805527777298834,-0.0850000000000051,0.));
#544=CARTESIAN_POINT('',(0.402763888649417,-0.0850000000000051,0.));
#545=CARTESIAN_POINT('',(0.805527777298834,-0.0850000000000051,0.03));
#546=CARTESIAN_POINT('',(0.805527777298834,-0.0850000000000051,0.));
#547=CARTESIAN_POINT('',(0.402763888649417,-0.0850000000000051,0.03));
#548=CARTESIAN_POINT('Origin',(0.,0.,0.));
#549=CARTESIAN_POINT('',(0.0850000000000023,-0.805527777298835,0.));
#550=CARTESIAN_POINT('Origin',(0.,0.,0.));
#551=CARTESIAN_POINT('',(0.0850000000000023,-0.805527777298835,0.03));
#552=CARTESIAN_POINT('',(0.0850000000000023,-0.805527777298835,0.));
#553=CARTESIAN_POINT('Origin',(0.,0.,0.03));
#554=CARTESIAN_POINT('Origin',(0.0850000000000023,-0.9,0.));
#555=CARTESIAN_POINT('',(0.0850000000000023,-0.9,0.));
#556=CARTESIAN_POINT('',(0.0850000000000023,-0.45,0.));
#557=CARTESIAN_POINT('',(0.0850000000000023,-0.9,0.03));
#558=CARTESIAN_POINT('',(0.0850000000000023,-0.9,0.));
#559=CARTESIAN_POINT('',(0.0850000000000023,-0.45,0.03));
#560=CARTESIAN_POINT('Origin',(-0.0850000000000022,-0.900000000000003,0.));
#561=CARTESIAN_POINT('',(-0.0850000000000022,-0.900000000000003,0.));
#562=CARTESIAN_POINT('',(-0.0424999999999935,-0.900000000000002,0.));
#563=CARTESIAN_POINT('',(-0.0850000000000022,-0.900000000000003,0.03));
#564=CARTESIAN_POINT('',(-0.0850000000000022,-0.900000000000003,0.));
#565=CARTESIAN_POINT('',(-0.0424999999999935,-0.900000000000002,0.03));
#566=CARTESIAN_POINT('Origin',(-0.0850000000000022,-0.805527777298834,0.));
#567=CARTESIAN_POINT('',(-0.0850000000000022,-0.805527777298834,0.));
#568=CARTESIAN_POINT('',(-0.0850000000000021,-0.402763888649417,0.));
#569=CARTESIAN_POINT('',(-0.0850000000000022,-0.805527777298834,0.03));
#570=CARTESIAN_POINT('',(-0.0850000000000022,-0.805527777298834,0.));
#571=CARTESIAN_POINT('',(-0.0850000000000021,-0.402763888649417,0.03));
#572=CARTESIAN_POINT('Origin',(0.,0.,0.));
#573=CARTESIAN_POINT('',(-0.805527777298835,-0.0849999999999994,0.));
#574=CARTESIAN_POINT('Origin',(0.,0.,0.));
#575=CARTESIAN_POINT('',(-0.805527777298835,-0.0849999999999994,0.03));
#576=CARTESIAN_POINT('',(-0.805527777298835,-0.0849999999999994,0.));
#577=CARTESIAN_POINT('Origin',(0.,0.,0.03));
#578=CARTESIAN_POINT('Origin',(-0.9,-0.0849999999999994,0.));
#579=CARTESIAN_POINT('',(-0.9,-0.0849999999999994,0.));
#580=CARTESIAN_POINT('',(-0.45,-0.0849999999999994,0.));
#581=CARTESIAN_POINT('',(-0.9,-0.0849999999999994,0.03));
#582=CARTESIAN_POINT('',(-0.9,-0.0849999999999994,0.));
#583=CARTESIAN_POINT('',(-0.45,-0.0849999999999994,0.03));
#584=CARTESIAN_POINT('Origin',(-0.900000000000006,0.0849999999999994,0.));
#585=CARTESIAN_POINT('',(-0.900000000000006,0.0849999999999994,0.));
#586=CARTESIAN_POINT('',(-0.900000000000004,0.0424999999999845,0.));
#587=CARTESIAN_POINT('',(-0.900000000000006,0.0849999999999994,0.03));
#588=CARTESIAN_POINT('',(-0.900000000000006,0.0849999999999994,0.));
#589=CARTESIAN_POINT('',(-0.900000000000004,0.0424999999999845,0.03));
#590=CARTESIAN_POINT('Origin',(-0.805527777298835,0.0849999999999974,0.));
#591=CARTESIAN_POINT('',(-0.805527777298835,0.0849999999999974,0.));
#592=CARTESIAN_POINT('',(-0.402763888649417,0.0849999999999889,0.));
#593=CARTESIAN_POINT('',(-0.805527777298835,0.0849999999999974,0.03));
#594=CARTESIAN_POINT('',(-0.805527777298835,0.0849999999999974,0.));
#595=CARTESIAN_POINT('',(-0.402763888649417,0.0849999999999889,0.03));
#596=CARTESIAN_POINT('Origin',(0.,0.,0.));
#597=CARTESIAN_POINT('Origin',(0.,0.,0.));
#598=CARTESIAN_POINT('Origin',(0.,0.,0.03));
#599=CARTESIAN_POINT('Origin',(0.,0.,0.));
#600=CARTESIAN_POINT('',(3.,3.67394039744206E-16,0.03));
#601=CARTESIAN_POINT('Origin',(0.,0.,0.03));
#602=CARTESIAN_POINT('',(3.,3.67394039744206E-16,0.));
#603=CARTESIAN_POINT('Origin',(0.,0.,0.));
#604=CARTESIAN_POINT('Origin',(-1.29302661056476E-16,4.93432455388958E-17,
0.));
#605=CARTESIAN_POINT('Origin',(-1.29302661056476E-16,4.93432455388958E-17,
0.03));
#606=UNCERTAINTY_MEASURE_WITH_UNIT(LENGTH_MEASURE(0.001),#610,
'DISTANCE_ACCURACY_VALUE',
'Maximum model space distance between geometric entities at asserted c
onnectivities');
#607=UNCERTAINTY_MEASURE_WITH_UNIT(LENGTH_MEASURE(1.E-6),#611,
'DISTANCE_ACCURACY_VALUE',
'Maximum model space distance between geometric entities at asserted c
onnectivities');
#608=(
GEOMETRIC_REPRESENTATION_CONTEXT(3)
GLOBAL_UNCERTAINTY_ASSIGNED_CONTEXT((#606))
GLOBAL_UNIT_ASSIGNED_CONTEXT((#610,#614,#612))
REPRESENTATION_CONTEXT('','3D')
);
#609=(
GEOMETRIC_REPRESENTATION_CONTEXT(3)
GLOBAL_UNCERTAINTY_ASSIGNED_CONTEXT((#607))
GLOBAL_UNIT_ASSIGNED_CONTEXT((#611,#614,#612))
REPRESENTATION_CONTEXT('','3D')
);
#610=(
LENGTH_UNIT()
NAMED_UNIT(*)
SI_UNIT(.CENTI.,.METRE.)
);
#611=(
LENGTH_UNIT()
NAMED_UNIT(*)
SI_UNIT(.MILLI.,.METRE.)
);
#612=(
NAMED_UNIT(*)
SI_UNIT($,.STERADIAN.)
SOLID_ANGLE_UNIT()
);
#613=DIMENSIONAL_EXPONENTS(0.,0.,0.,0.,0.,0.,0.);
#614=(
CONVERSION_BASED_UNIT('degree',#616)
NAMED_UNIT(#613)
PLANE_ANGLE_UNIT()
);
#615=(
NAMED_UNIT(*)
PLANE_ANGLE_UNIT()
SI_UNIT($,.RADIAN.)
);
#616=PLANE_ANGLE_MEASURE_WITH_UNIT(PLANE_ANGLE_MEASURE(0.01745329252),#615);
#617=SHAPE_DEFINITION_REPRESENTATION(#618,#619);
#618=PRODUCT_DEFINITION_SHAPE('',$,#621);
#619=SHAPE_REPRESENTATION('',(#372),#608);
#620=PRODUCT_DEFINITION_CONTEXT('part definition',#625,'design');
#621=PRODUCT_DEFINITION('NAS_16_ipt','NAS_16_ipt',#622,#620);
#622=PRODUCT_DEFINITION_FORMATION('',$,#627);
#623=PRODUCT_RELATED_PRODUCT_CATEGORY('NAS_16_ipt','NAS_16_ipt',(#627));
#624=APPLICATION_PROTOCOL_DEFINITION('international standard',
'automotive_design',2009,#625);
#625=APPLICATION_CONTEXT(
'Core Data for Automotive Mechanical Design Process');
#626=PRODUCT_CONTEXT('part definition',#625,'mechanical');
#627=PRODUCT('NAS_16_ipt','NAS_16_ipt',$,(#626));
#628=PRESENTATION_STYLE_ASSIGNMENT((#629));
#629=SURFACE_STYLE_USAGE(.BOTH.,#630);
#630=SURFACE_SIDE_STYLE('',(#631));
#631=SURFACE_STYLE_FILL_AREA(#632);
#632=FILL_AREA_STYLE('',(#633));
#633=FILL_AREA_STYLE_COLOUR('',#634);
#634=COLOUR_RGB('',0.749019607843137,0.749019607843137,0.749019607843137);
ENDSEC;
END-ISO-10303-21;
