ISO-10303-21;
HEADER;
/* Generated by software containing ST-Developer
 * from STEP Tools, Inc. (www.steptools.com) 
 */

FILE_DESCRIPTION(
/* description */ (''),
/* implementation_level */ '2;1');

FILE_NAME(
/* name */ 
'H:\\KE\\3D-Zeichnungen vereinfacht f\X\FCr Kunden.ipt\\NAS_\\NAS_30_i
pt.stp',
/* time_stamp */ '2018-07-12T13:54:57+02:00',
/* author */ ('thagel'),
/* organization */ (''),
/* preprocessor_version */ 'ST-DEVELOPER v16.1',
/* originating_system */ 'Autodesk Inventor 2016',
/* authorisation */ '');

FILE_SCHEMA (('CONFIG_CONTROL_DESIGN'));
ENDSEC;

DATA;
#10=MECHANICAL_DESIGN_GEOMETRIC_PRESENTATION_REPRESENTATION('',(#13),#609);
#11=SHAPE_REPRESENTATION_RELATIONSHIP('SRR','None',#618,#12);
#12=ADVANCED_BREP_SHAPE_REPRESENTATION('',(#14),#608);
#13=STYLED_ITEM('',(#627),#14);
#14=MANIFOLD_SOLID_BREP('Volumenk\X\F6rper1',#371);
#15=FACE_BOUND('',#69,.T.);
#16=FACE_BOUND('',#71,.T.);
#17=FACE_BOUND('',#73,.T.);
#18=CIRCLE('',#376,15.4);
#19=CIRCLE('',#377,15.4);
#20=CIRCLE('',#382,15.4);
#21=CIRCLE('',#383,15.4);
#22=CIRCLE('',#388,15.4);
#23=CIRCLE('',#389,15.4);
#24=CIRCLE('',#394,15.4);
#25=CIRCLE('',#395,15.4);
#26=CIRCLE('',#398,37.5);
#27=CIRCLE('',#399,37.5);
#28=CYLINDRICAL_SURFACE('',#375,15.4);
#29=CYLINDRICAL_SURFACE('',#381,15.4);
#30=CYLINDRICAL_SURFACE('',#387,15.4);
#31=CYLINDRICAL_SURFACE('',#393,15.4);
#32=CYLINDRICAL_SURFACE('',#397,37.5);
#33=FACE_OUTER_BOUND('',#52,.T.);
#34=FACE_OUTER_BOUND('',#53,.T.);
#35=FACE_OUTER_BOUND('',#54,.T.);
#36=FACE_OUTER_BOUND('',#55,.T.);
#37=FACE_OUTER_BOUND('',#56,.T.);
#38=FACE_OUTER_BOUND('',#57,.T.);
#39=FACE_OUTER_BOUND('',#58,.T.);
#40=FACE_OUTER_BOUND('',#59,.T.);
#41=FACE_OUTER_BOUND('',#60,.T.);
#42=FACE_OUTER_BOUND('',#61,.T.);
#43=FACE_OUTER_BOUND('',#62,.T.);
#44=FACE_OUTER_BOUND('',#63,.T.);
#45=FACE_OUTER_BOUND('',#64,.T.);
#46=FACE_OUTER_BOUND('',#65,.T.);
#47=FACE_OUTER_BOUND('',#66,.T.);
#48=FACE_OUTER_BOUND('',#67,.T.);
#49=FACE_OUTER_BOUND('',#68,.T.);
#50=FACE_OUTER_BOUND('',#70,.T.);
#51=FACE_OUTER_BOUND('',#72,.T.);
#52=EDGE_LOOP('',(#238,#239,#240,#241));
#53=EDGE_LOOP('',(#242,#243,#244,#245));
#54=EDGE_LOOP('',(#246,#247,#248,#249));
#55=EDGE_LOOP('',(#250,#251,#252,#253));
#56=EDGE_LOOP('',(#254,#255,#256,#257));
#57=EDGE_LOOP('',(#258,#259,#260,#261));
#58=EDGE_LOOP('',(#262,#263,#264,#265));
#59=EDGE_LOOP('',(#266,#267,#268,#269));
#60=EDGE_LOOP('',(#270,#271,#272,#273));
#61=EDGE_LOOP('',(#274,#275,#276,#277));
#62=EDGE_LOOP('',(#278,#279,#280,#281));
#63=EDGE_LOOP('',(#282,#283,#284,#285));
#64=EDGE_LOOP('',(#286,#287,#288,#289));
#65=EDGE_LOOP('',(#290,#291,#292,#293));
#66=EDGE_LOOP('',(#294,#295,#296,#297));
#67=EDGE_LOOP('',(#298,#299,#300,#301));
#68=EDGE_LOOP('',(#302));
#69=EDGE_LOOP('',(#303));
#70=EDGE_LOOP('',(#304));
#71=EDGE_LOOP('',(#305,#306,#307,#308,#309,#310,#311,#312,#313,#314,#315,
#316,#317,#318,#319,#320));
#72=EDGE_LOOP('',(#321));
#73=EDGE_LOOP('',(#322,#323,#324,#325,#326,#327,#328,#329,#330,#331,#332,
#333,#334,#335,#336,#337));
#74=LINE('',#506,#114);
#75=LINE('',#508,#115);
#76=LINE('',#510,#116);
#77=LINE('',#511,#117);
#78=LINE('',#514,#118);
#79=LINE('',#516,#119);
#80=LINE('',#517,#120);
#81=LINE('',#523,#121);
#82=LINE('',#526,#122);
#83=LINE('',#528,#123);
#84=LINE('',#529,#124);
#85=LINE('',#532,#125);
#86=LINE('',#534,#126);
#87=LINE('',#535,#127);
#88=LINE('',#538,#128);
#89=LINE('',#540,#129);
#90=LINE('',#541,#130);
#91=LINE('',#547,#131);
#92=LINE('',#550,#132);
#93=LINE('',#552,#133);
#94=LINE('',#553,#134);
#95=LINE('',#556,#135);
#96=LINE('',#558,#136);
#97=LINE('',#559,#137);
#98=LINE('',#562,#138);
#99=LINE('',#564,#139);
#100=LINE('',#565,#140);
#101=LINE('',#571,#141);
#102=LINE('',#574,#142);
#103=LINE('',#576,#143);
#104=LINE('',#577,#144);
#105=LINE('',#580,#145);
#106=LINE('',#582,#146);
#107=LINE('',#583,#147);
#108=LINE('',#586,#148);
#109=LINE('',#588,#149);
#110=LINE('',#589,#150);
#111=LINE('',#595,#151);
#112=LINE('',#597,#152);
#113=LINE('',#598,#153);
#114=VECTOR('',#406,3.19999999999999);
#115=VECTOR('',#407,0.3);
#116=VECTOR('',#408,3.19999999999999);
#117=VECTOR('',#409,0.3);
#118=VECTOR('',#412,1.78334240116337);
#119=VECTOR('',#413,1.78334240116337);
#120=VECTOR('',#414,0.3);
#121=VECTOR('',#421,0.3);
#122=VECTOR('',#424,1.78334240116347);
#123=VECTOR('',#425,1.78334240116347);
#124=VECTOR('',#426,0.3);
#125=VECTOR('',#429,3.19999999999999);
#126=VECTOR('',#430,3.19999999999999);
#127=VECTOR('',#431,0.3);
#128=VECTOR('',#434,1.78334240116342);
#129=VECTOR('',#435,1.78334240116342);
#130=VECTOR('',#436,0.3);
#131=VECTOR('',#443,0.3);
#132=VECTOR('',#446,1.78334240116331);
#133=VECTOR('',#447,1.78334240116331);
#134=VECTOR('',#448,0.3);
#135=VECTOR('',#451,3.19999999999999);
#136=VECTOR('',#452,3.19999999999999);
#137=VECTOR('',#453,0.3);
#138=VECTOR('',#456,1.78334240116331);
#139=VECTOR('',#457,1.78334240116331);
#140=VECTOR('',#458,0.3);
#141=VECTOR('',#465,0.3);
#142=VECTOR('',#468,1.78334240116349);
#143=VECTOR('',#469,1.78334240116349);
#144=VECTOR('',#470,0.3);
#145=VECTOR('',#473,3.19999999999999);
#146=VECTOR('',#474,3.19999999999999);
#147=VECTOR('',#475,0.3);
#148=VECTOR('',#478,1.78334240116345);
#149=VECTOR('',#479,1.78334240116345);
#150=VECTOR('',#480,0.3);
#151=VECTOR('',#487,0.3);
#152=VECTOR('',#490,1.78334240116337);
#153=VECTOR('',#491,1.78334240116337);
#154=VERTEX_POINT('',#504);
#155=VERTEX_POINT('',#505);
#156=VERTEX_POINT('',#507);
#157=VERTEX_POINT('',#509);
#158=VERTEX_POINT('',#513);
#159=VERTEX_POINT('',#515);
#160=VERTEX_POINT('',#519);
#161=VERTEX_POINT('',#521);
#162=VERTEX_POINT('',#525);
#163=VERTEX_POINT('',#527);
#164=VERTEX_POINT('',#531);
#165=VERTEX_POINT('',#533);
#166=VERTEX_POINT('',#537);
#167=VERTEX_POINT('',#539);
#168=VERTEX_POINT('',#543);
#169=VERTEX_POINT('',#545);
#170=VERTEX_POINT('',#549);
#171=VERTEX_POINT('',#551);
#172=VERTEX_POINT('',#555);
#173=VERTEX_POINT('',#557);
#174=VERTEX_POINT('',#561);
#175=VERTEX_POINT('',#563);
#176=VERTEX_POINT('',#567);
#177=VERTEX_POINT('',#569);
#178=VERTEX_POINT('',#573);
#179=VERTEX_POINT('',#575);
#180=VERTEX_POINT('',#579);
#181=VERTEX_POINT('',#581);
#182=VERTEX_POINT('',#585);
#183=VERTEX_POINT('',#587);
#184=VERTEX_POINT('',#591);
#185=VERTEX_POINT('',#593);
#186=VERTEX_POINT('',#600);
#187=VERTEX_POINT('',#602);
#188=EDGE_CURVE('',#154,#155,#74,.T.);
#189=EDGE_CURVE('',#156,#154,#75,.T.);
#190=EDGE_CURVE('',#157,#156,#76,.T.);
#191=EDGE_CURVE('',#157,#155,#77,.T.);
#192=EDGE_CURVE('',#155,#158,#78,.T.);
#193=EDGE_CURVE('',#159,#157,#79,.T.);
#194=EDGE_CURVE('',#159,#158,#80,.T.);
#195=EDGE_CURVE('',#158,#160,#18,.T.);
#196=EDGE_CURVE('',#161,#159,#19,.T.);
#197=EDGE_CURVE('',#161,#160,#81,.T.);
#198=EDGE_CURVE('',#160,#162,#82,.T.);
#199=EDGE_CURVE('',#163,#161,#83,.T.);
#200=EDGE_CURVE('',#163,#162,#84,.T.);
#201=EDGE_CURVE('',#162,#164,#85,.T.);
#202=EDGE_CURVE('',#165,#163,#86,.T.);
#203=EDGE_CURVE('',#165,#164,#87,.T.);
#204=EDGE_CURVE('',#164,#166,#88,.T.);
#205=EDGE_CURVE('',#167,#165,#89,.T.);
#206=EDGE_CURVE('',#167,#166,#90,.T.);
#207=EDGE_CURVE('',#166,#168,#20,.T.);
#208=EDGE_CURVE('',#169,#167,#21,.T.);
#209=EDGE_CURVE('',#169,#168,#91,.T.);
#210=EDGE_CURVE('',#168,#170,#92,.T.);
#211=EDGE_CURVE('',#171,#169,#93,.T.);
#212=EDGE_CURVE('',#171,#170,#94,.T.);
#213=EDGE_CURVE('',#170,#172,#95,.T.);
#214=EDGE_CURVE('',#173,#171,#96,.T.);
#215=EDGE_CURVE('',#173,#172,#97,.T.);
#216=EDGE_CURVE('',#172,#174,#98,.T.);
#217=EDGE_CURVE('',#175,#173,#99,.T.);
#218=EDGE_CURVE('',#175,#174,#100,.T.);
#219=EDGE_CURVE('',#174,#176,#22,.T.);
#220=EDGE_CURVE('',#177,#175,#23,.T.);
#221=EDGE_CURVE('',#177,#176,#101,.T.);
#222=EDGE_CURVE('',#176,#178,#102,.T.);
#223=EDGE_CURVE('',#179,#177,#103,.T.);
#224=EDGE_CURVE('',#179,#178,#104,.T.);
#225=EDGE_CURVE('',#178,#180,#105,.T.);
#226=EDGE_CURVE('',#181,#179,#106,.T.);
#227=EDGE_CURVE('',#181,#180,#107,.T.);
#228=EDGE_CURVE('',#180,#182,#108,.T.);
#229=EDGE_CURVE('',#183,#181,#109,.T.);
#230=EDGE_CURVE('',#183,#182,#110,.T.);
#231=EDGE_CURVE('',#182,#184,#24,.T.);
#232=EDGE_CURVE('',#185,#183,#25,.T.);
#233=EDGE_CURVE('',#185,#184,#111,.T.);
#234=EDGE_CURVE('',#184,#154,#112,.T.);
#235=EDGE_CURVE('',#156,#185,#113,.T.);
#236=EDGE_CURVE('',#186,#186,#26,.T.);
#237=EDGE_CURVE('',#187,#187,#27,.T.);
#238=ORIENTED_EDGE('',*,*,#188,.F.);
#239=ORIENTED_EDGE('',*,*,#189,.F.);
#240=ORIENTED_EDGE('',*,*,#190,.F.);
#241=ORIENTED_EDGE('',*,*,#191,.T.);
#242=ORIENTED_EDGE('',*,*,#192,.F.);
#243=ORIENTED_EDGE('',*,*,#191,.F.);
#244=ORIENTED_EDGE('',*,*,#193,.F.);
#245=ORIENTED_EDGE('',*,*,#194,.T.);
#246=ORIENTED_EDGE('',*,*,#195,.F.);
#247=ORIENTED_EDGE('',*,*,#194,.F.);
#248=ORIENTED_EDGE('',*,*,#196,.F.);
#249=ORIENTED_EDGE('',*,*,#197,.T.);
#250=ORIENTED_EDGE('',*,*,#198,.F.);
#251=ORIENTED_EDGE('',*,*,#197,.F.);
#252=ORIENTED_EDGE('',*,*,#199,.F.);
#253=ORIENTED_EDGE('',*,*,#200,.T.);
#254=ORIENTED_EDGE('',*,*,#201,.F.);
#255=ORIENTED_EDGE('',*,*,#200,.F.);
#256=ORIENTED_EDGE('',*,*,#202,.F.);
#257=ORIENTED_EDGE('',*,*,#203,.T.);
#258=ORIENTED_EDGE('',*,*,#204,.F.);
#259=ORIENTED_EDGE('',*,*,#203,.F.);
#260=ORIENTED_EDGE('',*,*,#205,.F.);
#261=ORIENTED_EDGE('',*,*,#206,.T.);
#262=ORIENTED_EDGE('',*,*,#207,.F.);
#263=ORIENTED_EDGE('',*,*,#206,.F.);
#264=ORIENTED_EDGE('',*,*,#208,.F.);
#265=ORIENTED_EDGE('',*,*,#209,.T.);
#266=ORIENTED_EDGE('',*,*,#210,.F.);
#267=ORIENTED_EDGE('',*,*,#209,.F.);
#268=ORIENTED_EDGE('',*,*,#211,.F.);
#269=ORIENTED_EDGE('',*,*,#212,.T.);
#270=ORIENTED_EDGE('',*,*,#213,.F.);
#271=ORIENTED_EDGE('',*,*,#212,.F.);
#272=ORIENTED_EDGE('',*,*,#214,.F.);
#273=ORIENTED_EDGE('',*,*,#215,.T.);
#274=ORIENTED_EDGE('',*,*,#216,.F.);
#275=ORIENTED_EDGE('',*,*,#215,.F.);
#276=ORIENTED_EDGE('',*,*,#217,.F.);
#277=ORIENTED_EDGE('',*,*,#218,.T.);
#278=ORIENTED_EDGE('',*,*,#219,.F.);
#279=ORIENTED_EDGE('',*,*,#218,.F.);
#280=ORIENTED_EDGE('',*,*,#220,.F.);
#281=ORIENTED_EDGE('',*,*,#221,.T.);
#282=ORIENTED_EDGE('',*,*,#222,.F.);
#283=ORIENTED_EDGE('',*,*,#221,.F.);
#284=ORIENTED_EDGE('',*,*,#223,.F.);
#285=ORIENTED_EDGE('',*,*,#224,.T.);
#286=ORIENTED_EDGE('',*,*,#225,.F.);
#287=ORIENTED_EDGE('',*,*,#224,.F.);
#288=ORIENTED_EDGE('',*,*,#226,.F.);
#289=ORIENTED_EDGE('',*,*,#227,.T.);
#290=ORIENTED_EDGE('',*,*,#228,.F.);
#291=ORIENTED_EDGE('',*,*,#227,.F.);
#292=ORIENTED_EDGE('',*,*,#229,.F.);
#293=ORIENTED_EDGE('',*,*,#230,.T.);
#294=ORIENTED_EDGE('',*,*,#231,.F.);
#295=ORIENTED_EDGE('',*,*,#230,.F.);
#296=ORIENTED_EDGE('',*,*,#232,.F.);
#297=ORIENTED_EDGE('',*,*,#233,.T.);
#298=ORIENTED_EDGE('',*,*,#234,.F.);
#299=ORIENTED_EDGE('',*,*,#233,.F.);
#300=ORIENTED_EDGE('',*,*,#235,.F.);
#301=ORIENTED_EDGE('',*,*,#189,.T.);
#302=ORIENTED_EDGE('',*,*,#236,.T.);
#303=ORIENTED_EDGE('',*,*,#237,.F.);
#304=ORIENTED_EDGE('',*,*,#236,.F.);
#305=ORIENTED_EDGE('',*,*,#188,.T.);
#306=ORIENTED_EDGE('',*,*,#192,.T.);
#307=ORIENTED_EDGE('',*,*,#195,.T.);
#308=ORIENTED_EDGE('',*,*,#198,.T.);
#309=ORIENTED_EDGE('',*,*,#201,.T.);
#310=ORIENTED_EDGE('',*,*,#204,.T.);
#311=ORIENTED_EDGE('',*,*,#207,.T.);
#312=ORIENTED_EDGE('',*,*,#210,.T.);
#313=ORIENTED_EDGE('',*,*,#213,.T.);
#314=ORIENTED_EDGE('',*,*,#216,.T.);
#315=ORIENTED_EDGE('',*,*,#219,.T.);
#316=ORIENTED_EDGE('',*,*,#222,.T.);
#317=ORIENTED_EDGE('',*,*,#225,.T.);
#318=ORIENTED_EDGE('',*,*,#228,.T.);
#319=ORIENTED_EDGE('',*,*,#231,.T.);
#320=ORIENTED_EDGE('',*,*,#234,.T.);
#321=ORIENTED_EDGE('',*,*,#237,.T.);
#322=ORIENTED_EDGE('',*,*,#190,.T.);
#323=ORIENTED_EDGE('',*,*,#235,.T.);
#324=ORIENTED_EDGE('',*,*,#232,.T.);
#325=ORIENTED_EDGE('',*,*,#229,.T.);
#326=ORIENTED_EDGE('',*,*,#226,.T.);
#327=ORIENTED_EDGE('',*,*,#223,.T.);
#328=ORIENTED_EDGE('',*,*,#220,.T.);
#329=ORIENTED_EDGE('',*,*,#217,.T.);
#330=ORIENTED_EDGE('',*,*,#214,.T.);
#331=ORIENTED_EDGE('',*,*,#211,.T.);
#332=ORIENTED_EDGE('',*,*,#208,.T.);
#333=ORIENTED_EDGE('',*,*,#205,.T.);
#334=ORIENTED_EDGE('',*,*,#202,.T.);
#335=ORIENTED_EDGE('',*,*,#199,.T.);
#336=ORIENTED_EDGE('',*,*,#196,.T.);
#337=ORIENTED_EDGE('',*,*,#193,.T.);
#338=PLANE('',#373);
#339=PLANE('',#374);
#340=PLANE('',#378);
#341=PLANE('',#379);
#342=PLANE('',#380);
#343=PLANE('',#384);
#344=PLANE('',#385);
#345=PLANE('',#386);
#346=PLANE('',#390);
#347=PLANE('',#391);
#348=PLANE('',#392);
#349=PLANE('',#396);
#350=PLANE('',#400);
#351=PLANE('',#401);
#352=ADVANCED_FACE('',(#33),#338,.F.);
#353=ADVANCED_FACE('',(#34),#339,.F.);
#354=ADVANCED_FACE('',(#35),#28,.F.);
#355=ADVANCED_FACE('',(#36),#340,.F.);
#356=ADVANCED_FACE('',(#37),#341,.F.);
#357=ADVANCED_FACE('',(#38),#342,.F.);
#358=ADVANCED_FACE('',(#39),#29,.F.);
#359=ADVANCED_FACE('',(#40),#343,.F.);
#360=ADVANCED_FACE('',(#41),#344,.F.);
#361=ADVANCED_FACE('',(#42),#345,.F.);
#362=ADVANCED_FACE('',(#43),#30,.F.);
#363=ADVANCED_FACE('',(#44),#346,.F.);
#364=ADVANCED_FACE('',(#45),#347,.F.);
#365=ADVANCED_FACE('',(#46),#348,.F.);
#366=ADVANCED_FACE('',(#47),#31,.F.);
#367=ADVANCED_FACE('',(#48),#349,.F.);
#368=ADVANCED_FACE('',(#49,#15),#32,.T.);
#369=ADVANCED_FACE('',(#50,#16),#350,.F.);
#370=ADVANCED_FACE('',(#51,#17),#351,.T.);
#371=CLOSED_SHELL('',(#352,#353,#354,#355,#356,#357,#358,#359,#360,#361,
#362,#363,#364,#365,#366,#367,#368,#369,#370));
#372=AXIS2_PLACEMENT_3D('placement',#502,#402,#403);
#373=AXIS2_PLACEMENT_3D('',#503,#404,#405);
#374=AXIS2_PLACEMENT_3D('',#512,#410,#411);
#375=AXIS2_PLACEMENT_3D('',#518,#415,#416);
#376=AXIS2_PLACEMENT_3D('',#520,#417,#418);
#377=AXIS2_PLACEMENT_3D('',#522,#419,#420);
#378=AXIS2_PLACEMENT_3D('',#524,#422,#423);
#379=AXIS2_PLACEMENT_3D('',#530,#427,#428);
#380=AXIS2_PLACEMENT_3D('',#536,#432,#433);
#381=AXIS2_PLACEMENT_3D('',#542,#437,#438);
#382=AXIS2_PLACEMENT_3D('',#544,#439,#440);
#383=AXIS2_PLACEMENT_3D('',#546,#441,#442);
#384=AXIS2_PLACEMENT_3D('',#548,#444,#445);
#385=AXIS2_PLACEMENT_3D('',#554,#449,#450);
#386=AXIS2_PLACEMENT_3D('',#560,#454,#455);
#387=AXIS2_PLACEMENT_3D('',#566,#459,#460);
#388=AXIS2_PLACEMENT_3D('',#568,#461,#462);
#389=AXIS2_PLACEMENT_3D('',#570,#463,#464);
#390=AXIS2_PLACEMENT_3D('',#572,#466,#467);
#391=AXIS2_PLACEMENT_3D('',#578,#471,#472);
#392=AXIS2_PLACEMENT_3D('',#584,#476,#477);
#393=AXIS2_PLACEMENT_3D('',#590,#481,#482);
#394=AXIS2_PLACEMENT_3D('',#592,#483,#484);
#395=AXIS2_PLACEMENT_3D('',#594,#485,#486);
#396=AXIS2_PLACEMENT_3D('',#596,#488,#489);
#397=AXIS2_PLACEMENT_3D('',#599,#492,#493);
#398=AXIS2_PLACEMENT_3D('',#601,#494,#495);
#399=AXIS2_PLACEMENT_3D('',#603,#496,#497);
#400=AXIS2_PLACEMENT_3D('',#604,#498,#499);
#401=AXIS2_PLACEMENT_3D('',#605,#500,#501);
#402=DIRECTION('axis',(0.,0.,1.));
#403=DIRECTION('refdir',(1.,0.,0.));
#404=DIRECTION('center_axis',(0.,1.,0.));
#405=DIRECTION('ref_axis',(0.,0.,1.));
#406=DIRECTION('',(1.,0.,0.));
#407=DIRECTION('',(0.,0.,1.));
#408=DIRECTION('',(-1.,0.,0.));
#409=DIRECTION('',(0.,0.,1.));
#410=DIRECTION('center_axis',(1.,1.49412432372054E-14,0.));
#411=DIRECTION('ref_axis',(0.,0.,-1.));
#412=DIRECTION('',(1.49412432372054E-14,-1.,0.));
#413=DIRECTION('',(-1.49412432372054E-14,1.,0.));
#414=DIRECTION('',(0.,0.,1.));
#415=DIRECTION('center_axis',(0.,0.,1.));
#416=DIRECTION('ref_axis',(-0.994588155768611,-0.103896103896119,0.));
#417=DIRECTION('center_axis',(0.,0.,-1.));
#418=DIRECTION('ref_axis',(-0.994588155768611,-0.103896103896119,0.));
#419=DIRECTION('center_axis',(0.,0.,1.));
#420=DIRECTION('ref_axis',(-0.994588155768611,-0.103896103896119,0.));
#421=DIRECTION('',(0.,0.,1.));
#422=DIRECTION('center_axis',(1.19529945897636E-13,1.,0.));
#423=DIRECTION('ref_axis',(0.,0.,1.));
#424=DIRECTION('',(1.,-1.19529945897636E-13,0.));
#425=DIRECTION('',(-1.,1.19529945897636E-13,0.));
#426=DIRECTION('',(0.,0.,1.));
#427=DIRECTION('center_axis',(1.,0.,0.));
#428=DIRECTION('ref_axis',(0.,0.,-1.));
#429=DIRECTION('',(0.,-1.,0.));
#430=DIRECTION('',(0.,1.,0.));
#431=DIRECTION('',(0.,0.,1.));
#432=DIRECTION('center_axis',(-8.96474594232294E-14,-1.,0.));
#433=DIRECTION('ref_axis',(0.,0.,-1.));
#434=DIRECTION('',(-1.,8.96474594232294E-14,0.));
#435=DIRECTION('',(1.,-8.96474594232294E-14,0.));
#436=DIRECTION('',(0.,0.,1.));
#437=DIRECTION('center_axis',(0.,0.,1.));
#438=DIRECTION('ref_axis',(-0.103896103896104,0.994588155768613,0.));
#439=DIRECTION('center_axis',(0.,0.,-1.));
#440=DIRECTION('ref_axis',(-0.103896103896104,0.994588155768613,0.));
#441=DIRECTION('center_axis',(0.,0.,1.));
#442=DIRECTION('ref_axis',(-0.103896103896104,0.994588155768613,0.));
#443=DIRECTION('',(0.,0.,1.));
#444=DIRECTION('center_axis',(1.,-1.49412432372059E-14,0.));
#445=DIRECTION('ref_axis',(0.,0.,-1.));
#446=DIRECTION('',(-1.49412432372059E-14,-1.,0.));
#447=DIRECTION('',(1.49412432372059E-14,1.,0.));
#448=DIRECTION('',(0.,0.,1.));
#449=DIRECTION('center_axis',(0.,-1.,0.));
#450=DIRECTION('ref_axis',(0.,0.,-1.));
#451=DIRECTION('',(-1.,0.,0.));
#452=DIRECTION('',(1.,0.,0.));
#453=DIRECTION('',(0.,0.,1.));
#454=DIRECTION('center_axis',(-1.,-1.74314504434068E-14,0.));
#455=DIRECTION('ref_axis',(0.,0.,1.));
#456=DIRECTION('',(-1.74314504434068E-14,1.,0.));
#457=DIRECTION('',(1.74314504434068E-14,-1.,0.));
#458=DIRECTION('',(0.,0.,1.));
#459=DIRECTION('center_axis',(0.,0.,1.));
#460=DIRECTION('ref_axis',(0.994588155768611,0.103896103896118,0.));
#461=DIRECTION('center_axis',(0.,0.,-1.));
#462=DIRECTION('ref_axis',(0.994588155768611,0.103896103896118,0.));
#463=DIRECTION('center_axis',(0.,0.,1.));
#464=DIRECTION('ref_axis',(0.994588155768611,0.103896103896118,0.));
#465=DIRECTION('',(0.,0.,1.));
#466=DIRECTION('center_axis',(-8.46670450108244E-14,-1.,0.));
#467=DIRECTION('ref_axis',(0.,0.,-1.));
#468=DIRECTION('',(-1.,8.46670450108244E-14,0.));
#469=DIRECTION('',(1.,-8.46670450108244E-14,0.));
#470=DIRECTION('',(0.,0.,1.));
#471=DIRECTION('center_axis',(-1.,0.,0.));
#472=DIRECTION('ref_axis',(0.,0.,1.));
#473=DIRECTION('',(0.,1.,0.));
#474=DIRECTION('',(0.,-1.,0.));
#475=DIRECTION('',(0.,0.,1.));
#476=DIRECTION('center_axis',(5.97649729488187E-14,1.,0.));
#477=DIRECTION('ref_axis',(0.,0.,1.));
#478=DIRECTION('',(1.,-5.97649729488187E-14,0.));
#479=DIRECTION('',(-1.,5.97649729488187E-14,0.));
#480=DIRECTION('',(0.,0.,1.));
#481=DIRECTION('center_axis',(0.,0.,1.));
#482=DIRECTION('ref_axis',(0.103896103896104,-0.994588155768613,0.));
#483=DIRECTION('center_axis',(0.,0.,-1.));
#484=DIRECTION('ref_axis',(0.103896103896104,-0.994588155768613,0.));
#485=DIRECTION('center_axis',(0.,0.,1.));
#486=DIRECTION('ref_axis',(0.103896103896104,-0.994588155768613,0.));
#487=DIRECTION('',(0.,0.,1.));
#488=DIRECTION('center_axis',(-1.,1.24510360310045E-14,0.));
#489=DIRECTION('ref_axis',(0.,0.,1.));
#490=DIRECTION('',(1.24510360310045E-14,1.,0.));
#491=DIRECTION('',(-1.24510360310045E-14,-1.,0.));
#492=DIRECTION('center_axis',(0.,0.,1.));
#493=DIRECTION('ref_axis',(-1.,0.,0.));
#494=DIRECTION('center_axis',(0.,0.,-1.));
#495=DIRECTION('ref_axis',(-1.,0.,0.));
#496=DIRECTION('center_axis',(0.,0.,-1.));
#497=DIRECTION('ref_axis',(-1.,0.,0.));
#498=DIRECTION('center_axis',(0.,0.,-1.));
#499=DIRECTION('ref_axis',(-1.,0.,0.));
#500=DIRECTION('center_axis',(0.,0.,-1.));
#501=DIRECTION('ref_axis',(-1.,0.,0.));
#502=CARTESIAN_POINT('',(0.,0.,0.));
#503=CARTESIAN_POINT('Origin',(-1.59999999999999,17.1,-0.15));
#504=CARTESIAN_POINT('',(-1.59999999999999,17.1,0.15));
#505=CARTESIAN_POINT('',(1.59999999999999,17.1,0.15));
#506=CARTESIAN_POINT('',(-0.799999999999996,17.1,0.15));
#507=CARTESIAN_POINT('',(-1.59999999999999,17.1,-0.15));
#508=CARTESIAN_POINT('',(-1.59999999999999,17.1,-0.15));
#509=CARTESIAN_POINT('',(1.59999999999999,17.1,-0.15));
#510=CARTESIAN_POINT('',(-0.799999999999996,17.1,-0.15));
#511=CARTESIAN_POINT('',(1.59999999999999,17.1,-0.15));
#512=CARTESIAN_POINT('Origin',(1.59999999999999,17.1,-0.15));
#513=CARTESIAN_POINT('',(1.60000000000002,15.3166575988366,0.15));
#514=CARTESIAN_POINT('',(1.60000000000012,8.55000000000001,0.15));
#515=CARTESIAN_POINT('',(1.60000000000002,15.3166575988366,-0.15));
#516=CARTESIAN_POINT('',(1.60000000000012,8.55000000000001,-0.15));
#517=CARTESIAN_POINT('',(1.60000000000002,15.3166575988366,-0.15));
#518=CARTESIAN_POINT('Origin',(1.77635683940025E-14,8.88178419700125E-15,
-0.15));
#519=CARTESIAN_POINT('',(15.3166575988366,1.60000000000023,0.15));
#520=CARTESIAN_POINT('Origin',(1.77635683940025E-14,8.88178419700125E-15,
0.15));
#521=CARTESIAN_POINT('',(15.3166575988366,1.60000000000023,-0.15));
#522=CARTESIAN_POINT('Origin',(1.77635683940025E-14,8.88178419700125E-15,
-0.15));
#523=CARTESIAN_POINT('',(15.3166575988366,1.60000000000023,-0.15));
#524=CARTESIAN_POINT('Origin',(15.3166575988366,1.60000000000023,-0.15));
#525=CARTESIAN_POINT('',(17.1000000000001,1.60000000000002,0.15));
#526=CARTESIAN_POINT('',(7.6583287994184,1.60000000000115,0.15));
#527=CARTESIAN_POINT('',(17.1000000000001,1.60000000000002,-0.15));
#528=CARTESIAN_POINT('',(7.6583287994184,1.60000000000115,-0.15));
#529=CARTESIAN_POINT('',(17.1000000000001,1.60000000000002,-0.15));
#530=CARTESIAN_POINT('Origin',(17.1000000000001,1.60000000000002,-0.15));
#531=CARTESIAN_POINT('',(17.1000000000001,-1.59999999999997,0.15));
#532=CARTESIAN_POINT('',(17.1000000000001,0.80000000000001,0.15));
#533=CARTESIAN_POINT('',(17.1000000000001,-1.59999999999997,-0.15));
#534=CARTESIAN_POINT('',(17.1000000000001,0.80000000000001,-0.15));
#535=CARTESIAN_POINT('',(17.1000000000001,-1.59999999999997,-0.15));
#536=CARTESIAN_POINT('Origin',(17.1000000000001,-1.59999999999997,-0.15));
#537=CARTESIAN_POINT('',(15.3166575988367,-1.59999999999981,0.15));
#538=CARTESIAN_POINT('',(8.54999999999997,-1.5999999999992,0.15));
#539=CARTESIAN_POINT('',(15.3166575988367,-1.59999999999981,-0.15));
#540=CARTESIAN_POINT('',(8.54999999999997,-1.5999999999992,-0.15));
#541=CARTESIAN_POINT('',(15.3166575988367,-1.59999999999981,-0.15));
#542=CARTESIAN_POINT('Origin',(1.77635683940025E-14,-1.77635683940025E-14,
-0.15));
#543=CARTESIAN_POINT('',(1.60000000000002,-15.3166575988366,0.15));
#544=CARTESIAN_POINT('Origin',(1.77635683940025E-14,-1.77635683940025E-14,
0.15));
#545=CARTESIAN_POINT('',(1.60000000000002,-15.3166575988366,-0.15));
#546=CARTESIAN_POINT('Origin',(1.77635683940025E-14,-1.77635683940025E-14,
-0.15));
#547=CARTESIAN_POINT('',(1.60000000000002,-15.3166575988366,-0.15));
#548=CARTESIAN_POINT('Origin',(1.60000000000002,-15.3166575988366,-0.15));
#549=CARTESIAN_POINT('',(1.59999999999999,-17.0999999999999,0.15));
#550=CARTESIAN_POINT('',(1.60000000000013,-7.65832879941833,0.15));
#551=CARTESIAN_POINT('',(1.59999999999999,-17.0999999999999,-0.15));
#552=CARTESIAN_POINT('',(1.60000000000013,-7.65832879941833,-0.15));
#553=CARTESIAN_POINT('',(1.59999999999999,-17.0999999999999,-0.15));
#554=CARTESIAN_POINT('Origin',(1.59999999999999,-17.0999999999999,-0.15));
#555=CARTESIAN_POINT('',(-1.59999999999999,-17.0999999999999,0.15));
#556=CARTESIAN_POINT('',(0.799999999999996,-17.0999999999999,0.15));
#557=CARTESIAN_POINT('',(-1.59999999999999,-17.0999999999999,-0.15));
#558=CARTESIAN_POINT('',(0.799999999999996,-17.0999999999999,-0.15));
#559=CARTESIAN_POINT('',(-1.59999999999999,-17.0999999999999,-0.15));
#560=CARTESIAN_POINT('Origin',(-1.59999999999999,-17.0999999999999,-0.15));
#561=CARTESIAN_POINT('',(-1.60000000000002,-15.3166575988366,0.15));
#562=CARTESIAN_POINT('',(-1.60000000000014,-8.54999999999998,0.15));
#563=CARTESIAN_POINT('',(-1.60000000000002,-15.3166575988366,-0.15));
#564=CARTESIAN_POINT('',(-1.60000000000014,-8.54999999999998,-0.15));
#565=CARTESIAN_POINT('',(-1.60000000000002,-15.3166575988366,-0.15));
#566=CARTESIAN_POINT('Origin',(-8.88178419700125E-15,-8.88178419700125E-15,
-0.15));
#567=CARTESIAN_POINT('',(-15.3166575988366,-1.60000000000023,0.15));
#568=CARTESIAN_POINT('Origin',(-8.88178419700125E-15,-8.88178419700125E-15,
0.15));
#569=CARTESIAN_POINT('',(-15.3166575988366,-1.60000000000023,-0.15));
#570=CARTESIAN_POINT('Origin',(-8.88178419700125E-15,-8.88178419700125E-15,
-0.15));
#571=CARTESIAN_POINT('',(-15.3166575988366,-1.60000000000023,-0.15));
#572=CARTESIAN_POINT('Origin',(-15.3166575988366,-1.60000000000023,-0.15));
#573=CARTESIAN_POINT('',(-17.1000000000001,-1.60000000000008,0.15));
#574=CARTESIAN_POINT('',(-7.65832879941837,-1.60000000000088,0.15));
#575=CARTESIAN_POINT('',(-17.1000000000001,-1.60000000000008,-0.15));
#576=CARTESIAN_POINT('',(-7.65832879941837,-1.60000000000088,-0.15));
#577=CARTESIAN_POINT('',(-17.1000000000001,-1.60000000000008,-0.15));
#578=CARTESIAN_POINT('Origin',(-17.1000000000001,-1.60000000000008,-0.15));
#579=CARTESIAN_POINT('',(-17.1000000000001,1.59999999999991,0.15));
#580=CARTESIAN_POINT('',(-17.1000000000001,-0.800000000000041,0.15));
#581=CARTESIAN_POINT('',(-17.1000000000001,1.59999999999991,-0.15));
#582=CARTESIAN_POINT('',(-17.1000000000001,-0.800000000000041,-0.15));
#583=CARTESIAN_POINT('',(-17.1000000000001,1.59999999999991,-0.15));
#584=CARTESIAN_POINT('Origin',(-17.1000000000001,1.59999999999991,-0.15));
#585=CARTESIAN_POINT('',(-15.3166575988367,1.59999999999981,0.15));
#586=CARTESIAN_POINT('',(-8.55000000000001,1.5999999999994,0.15));
#587=CARTESIAN_POINT('',(-15.3166575988367,1.59999999999981,-0.15));
#588=CARTESIAN_POINT('',(-8.55000000000001,1.5999999999994,-0.15));
#589=CARTESIAN_POINT('',(-15.3166575988367,1.59999999999981,-0.15));
#590=CARTESIAN_POINT('Origin',(-1.77635683940025E-14,1.77635683940025E-14,
-0.15));
#591=CARTESIAN_POINT('',(-1.60000000000001,15.3166575988366,0.15));
#592=CARTESIAN_POINT('Origin',(-1.77635683940025E-14,1.77635683940025E-14,
0.15));
#593=CARTESIAN_POINT('',(-1.60000000000001,15.3166575988366,-0.15));
#594=CARTESIAN_POINT('Origin',(-1.77635683940025E-14,1.77635683940025E-14,
-0.15));
#595=CARTESIAN_POINT('',(-1.60000000000001,15.3166575988366,-0.15));
#596=CARTESIAN_POINT('Origin',(-1.60000000000001,15.3166575988366,-0.15));
#597=CARTESIAN_POINT('',(-1.60000000000011,7.65832879941832,0.15));
#598=CARTESIAN_POINT('',(-1.60000000000011,7.65832879941832,-0.15));
#599=CARTESIAN_POINT('Origin',(0.,0.,-0.15));
#600=CARTESIAN_POINT('',(37.5,4.59242549680258E-15,0.15));
#601=CARTESIAN_POINT('Origin',(0.,0.,0.15));
#602=CARTESIAN_POINT('',(37.5,4.59242549680258E-15,-0.15));
#603=CARTESIAN_POINT('Origin',(0.,0.,-0.15));
#604=CARTESIAN_POINT('Origin',(0.,0.,0.15));
#605=CARTESIAN_POINT('Origin',(0.,0.,-0.15));
#606=UNCERTAINTY_MEASURE_WITH_UNIT(LENGTH_MEASURE(0.01),#610,
'DISTANCE_ACCURACY_VALUE',
'Maximum model space distance between geometric entities at asserted c
onnectivities');
#607=UNCERTAINTY_MEASURE_WITH_UNIT(LENGTH_MEASURE(1.E-6),#610,
'DISTANCE_ACCURACY_VALUE',
'Maximum model space distance between geometric entities at asserted c
onnectivities');
#608=(
GEOMETRIC_REPRESENTATION_CONTEXT(3)
GLOBAL_UNCERTAINTY_ASSIGNED_CONTEXT((#606))
GLOBAL_UNIT_ASSIGNED_CONTEXT((#610,#613,#611))
REPRESENTATION_CONTEXT('','3D')
);
#609=(
GEOMETRIC_REPRESENTATION_CONTEXT(3)
GLOBAL_UNCERTAINTY_ASSIGNED_CONTEXT((#607))
GLOBAL_UNIT_ASSIGNED_CONTEXT((#610,#613,#611))
REPRESENTATION_CONTEXT('','3D')
);
#610=(
LENGTH_UNIT()
NAMED_UNIT(*)
SI_UNIT(.MILLI.,.METRE.)
);
#611=(
NAMED_UNIT(*)
SI_UNIT($,.STERADIAN.)
SOLID_ANGLE_UNIT()
);
#612=DIMENSIONAL_EXPONENTS(0.,0.,0.,0.,0.,0.,0.);
#613=(
CONVERSION_BASED_UNIT('degree',#615)
NAMED_UNIT(#612)
PLANE_ANGLE_UNIT()
);
#614=(
NAMED_UNIT(*)
PLANE_ANGLE_UNIT()
SI_UNIT($,.RADIAN.)
);
#615=PLANE_ANGLE_MEASURE_WITH_UNIT(PLANE_ANGLE_MEASURE(0.01745329252),#614);
#616=SHAPE_DEFINITION_REPRESENTATION(#617,#618);
#617=PRODUCT_DEFINITION_SHAPE('',$,#620);
#618=SHAPE_REPRESENTATION('',(#372),#608);
#619=DESIGN_CONTEXT('part definition',#624,'design');
#620=PRODUCT_DEFINITION('Unterlegschild NAS_30 M10.260.4A',
'Unterlegschild NAS_30 M10.260.4A',#621,#619);
#621=PRODUCT_DEFINITION_FORMATION('','0',#626);
#622=PRODUCT_RELATED_PRODUCT_CATEGORY(
'Unterlegschild NAS_30 M10.260.4A','Unterlegschild NAS_30 M10.260.4A',(#626));
#623=APPLICATION_PROTOCOL_DEFINITION('international standard',
'ap203_configuration_controlled_3d_design_of_mechanical_parts_and_asse
mblies_mim_lf',2004,#624);
#624=APPLICATION_CONTEXT(
'Configuration Controlled 3D Design of Mechanical Parts and Assemblies');
#625=MECHANICAL_CONTEXT('part definition',#624,'mechanical');
#626=PRODUCT('Unterlegschild NAS_30 M10.260.4A',
'Unterlegschild NAS_30 M10.260.4A',$,(#625));
#627=PRESENTATION_STYLE_ASSIGNMENT((#628));
#628=SURFACE_STYLE_USAGE(.BOTH.,#629);
#629=SURFACE_SIDE_STYLE('',(#630));
#630=SURFACE_STYLE_FILL_AREA(#631);
#631=FILL_AREA_STYLE('',(#632));
#632=FILL_AREA_STYLE_COLOUR('',#633);
#633=COLOUR_RGB('',0.752941176470588,0.752941176470588,0.752941176470588);
ENDSEC;
END-ISO-10303-21;
